  0
SECTION
  2
HEADER
  9
$ACADVER
  1
AC1015
  9
$ACADMAINTVER
 70
     6
  9
$DWGCODEPAGE
  3
ANSI_1254
  9
$INSBASE
 10
0.0
 20
0.0
 30
0.0
  9
$EXTMIN
 10
0.0
 20
0.0
 30
0.0
  9
$EXTMAX
 10
279.4
 20
215.9
 30
0.0
  9
$LIMMIN
 10
0.0
 20
0.0
  9
$LIMMAX
 10
279.4
 20
215.9
  9
$ORTHOMODE
 70
     0
  9
$REGENMODE
 70
     1
  9
$FILLMODE
 70
     1
  9
$QTEXTMODE
 70
     0
  9
$MIRRTEXT
 70
     1
  9
$LTSCALE
 40
1.0
  9
$ATTMODE
 70
     1
  9
$TEXTSIZE
 40
3.5
  9
$TRACEWID
 40
1.0
  9
$TEXTSTYLE
  7
Standard
  9
$CLAYER
  8
0
  9
$CELTYPE
  6
ByLayer
  9
$CECOLOR
 62
   256
  9
$CELTSCALE
 40
1.0
  9
$DISPSILH
 70
     0
  9
$DIMSCALE
 40
1.0
  9
$DIMASZ
 40
3.5
  9
$DIMEXO
 40
1.0
  9
$DIMDLI
 40
3.75
  9
$DIMRND
 40
0.0
  9
$DIMDLE
 40
0.0
  9
$DIMEXE
 40
1.0
  9
$DIMTP
 40
0.0
  9
$DIMTM
 40
0.0
  9
$DIMTXT
 40
3.5
  9
$DIMCEN
 40
2.5
  9
$DIMTSZ
 40
0.0
  9
$DIMTOL
 70
     0
  9
$DIMLIM
 70
     0
  9
$DIMTIH
 70
     1
  9
$DIMTOH
 70
     1
  9
$DIMSE1
 70
     0
  9
$DIMSE2
 70
     0
  9
$DIMTAD
 70
     1
  9
$DIMZIN
 70
     0
  9
$DIMBLK
  1

  9
$DIMASO
 70
     1
  9
$DIMSHO
 70
     1
  9
$DIMPOST
  1

  9
$DIMAPOST
  1

  9
$DIMALT
 70
     0
  9
$DIMALTD
 70
     3
  9
$DIMALTF
 40
0.0393700787
  9
$DIMLFAC
 40
1.0
  9
$DIMTOFL
 70
     1
  9
$DIMTVP
 40
0.0
  9
$DIMTIX
 70
     0
  9
$DIMSOXD
 70
     0
  9
$DIMSAH
 70
     0
  9
$DIMBLK1
  1

  9
$DIMBLK2
  1

  9
$DIMSTYLE
  2
ISO-25
  9
$DIMCLRD
 70
     0
  9
$DIMCLRE
 70
     0
  9
$DIMCLRT
 70
     0
  9
$DIMTFAC
 40
1.0
  9
$DIMGAP
 40
1.524
  9
$DIMJUST
 70
     0
  9
$DIMSD1
 70
     0
  9
$DIMSD2
 70
     0
  9
$DIMTOLJ
 70
     0
  9
$DIMTZIN
 70
     0
  9
$DIMALTZ
 70
     0
  9
$DIMALTTZ
 70
     0
  9
$DIMUPT
 70
     0
  9
$DIMDEC
 70
     2
  9
$DIMTDEC
 70
     2
  9
$DIMALTU
 70
     2
  9
$DIMALTTD
 70
     3
  9
$DIMTXSTY
  7
Standard
  9
$DIMAUNIT
 70
     0
  9
$DIMADEC
 70
     2
  9
$DIMALTRND
 40
0.0
  9
$DIMAZIN
 70
     0
  9
$DIMDSEP
 70
    44
  9
$DIMATFIT
 70
     3
  9
$DIMFRAC
 70
     0
  9
$DIMLDRBLK
  1

  9
$DIMLUNIT
 70
     2
  9
$DIMLWD
 70
    -2
  9
$DIMLWE
 70
    -2
  9
$DIMTMOVE
 70
     0
  9
$LUNITS
 70
     2
  9
$LUPREC
 70
     2
  9
$SKETCHINC
 40
1.0
  9
$FILLETRAD
 40
10.0
  9
$AUNITS
 70
     0
  9
$AUPREC
 70
     2
  9
$MENU
  1
.
  9
$ELEVATION
 40
0.0
  9
$PELEVATION
 40
0.0
  9
$THICKNESS
 40
0.0
  9
$LIMCHECK
 70
     0
  9
$CHAMFERA
 40
0.0
  9
$CHAMFERB
 40
0.0
  9
$CHAMFERC
 40
0.0
  9
$CHAMFERD
 40
0.0
  9
$SKPOLY
 70
     0
  9
$TDCREATE
 40
2459741.614519433
  9
$TDUCREATE
 40
2459741.489519433
  9
$TDUPDATE
 40
2459741.614519687
  9
$TDUUPDATE
 40
2459741.489519687
  9
$TDINDWG
 40
0.0000000116
  9
$TDUSRTIMER
 40
0.0000000116
  9
$USRTIMER
 70
     1
  9
$ANGBASE
 50
0.0
  9
$ANGDIR
 70
     0
  9
$PDMODE
 70
     0
  9
$PDSIZE
 40
-1.0
  9
$PLINEWID
 40
0.0
  9
$SPLFRAME
 70
     0
  9
$SPLINETYPE
 70
     6
  9
$SPLINESEGS
 70
     8
  9
$HANDSEED
  5
144
  9
$SURFTAB1
 70
     6
  9
$SURFTAB2
 70
     6
  9
$SURFTYPE
 70
     6
  9
$SURFU
 70
     6
  9
$SURFV
 70
     6
  9
$UCSBASE
  2

  9
$UCSNAME
  2

  9
$UCSORG
 10
0.0
 20
0.0
 30
0.0
  9
$UCSXDIR
 10
1.0
 20
0.0
 30
0.0
  9
$UCSYDIR
 10
0.0
 20
1.0
 30
0.0
  9
$UCSORTHOREF
  2

  9
$UCSORTHOVIEW
 70
     0
  9
$UCSORGTOP
 10
0.0
 20
0.0
 30
0.0
  9
$UCSORGBOTTOM
 10
0.0
 20
0.0
 30
0.0
  9
$UCSORGLEFT
 10
0.0
 20
0.0
 30
0.0
  9
$UCSORGRIGHT
 10
0.0
 20
0.0
 30
0.0
  9
$UCSORGFRONT
 10
0.0
 20
0.0
 30
0.0
  9
$UCSORGBACK
 10
0.0
 20
0.0
 30
0.0
  9
$PUCSBASE
  2

  9
$PUCSNAME
  2

  9
$PUCSORG
 10
0.0
 20
0.0
 30
0.0
  9
$PUCSXDIR
 10
1.0
 20
0.0
 30
0.0
  9
$PUCSYDIR
 10
0.0
 20
1.0
 30
0.0
  9
$PUCSORTHOREF
  2

  9
$PUCSORTHOVIEW
 70
     0
  9
$PUCSORGTOP
 10
0.0
 20
0.0
 30
0.0
  9
$PUCSORGBOTTOM
 10
0.0
 20
0.0
 30
0.0
  9
$PUCSORGLEFT
 10
0.0
 20
0.0
 30
0.0
  9
$PUCSORGRIGHT
 10
0.0
 20
0.0
 30
0.0
  9
$PUCSORGFRONT
 10
0.0
 20
0.0
 30
0.0
  9
$PUCSORGBACK
 10
0.0
 20
0.0
 30
0.0
  9
$USERI1
 70
     0
  9
$USERI2
 70
     0
  9
$USERI3
 70
     0
  9
$USERI4
 70
     0
  9
$USERI5
 70
     0
  9
$USERR1
 40
0.0
  9
$USERR2
 40
0.0
  9
$USERR3
 40
0.0
  9
$USERR4
 40
0.0
  9
$USERR5
 40
0.0
  9
$WORLDVIEW
 70
     1
  9
$SHADEDGE
 70
     3
  9
$SHADEDIF
 70
    70
  9
$TILEMODE
 70
     1
  9
$MAXACTVP
 70
    64
  9
$PINSBASE
 10
0.0
 20
0.0
 30
0.0
  9
$PLIMCHECK
 70
     0
  9
$PEXTMIN
 10
1.0000000000E+20
 20
1.0000000000E+20
 30
1.0000000000E+20
  9
$PEXTMAX
 10
-1.0000000000E+20
 20
-1.0000000000E+20
 30
-1.0000000000E+20
  9
$PLIMMIN
 10
0.0
 20
0.0
  9
$PLIMMAX
 10
420.0
 20
297.0
  9
$UNITMODE
 70
     0
  9
$VISRETAIN
 70
     1
  9
$PLINEGEN
 70
     0
  9
$PSLTSCALE
 70
     1
  9
$TREEDEPTH
 70
  3020
  9
$CMLSTYLE
  2
Standard
  9
$CMLJUST
 70
     0
  9
$CMLSCALE
 40
20.0
  9
$PROXYGRAPHICS
 70
     1
  9
$MEASUREMENT
 70
     1
  9
$CELWEIGHT
370
    -1
  9
$ENDCAPS
280
     0
  9
$JOINSTYLE
280
     0
  9
$LWDISPLAY
290
     1
  9
$INSUNITS
 70
     4
  9
$HYPERLINKBASE
  1

  9
$STYLESHEET
  1

  9
$XEDIT
290
     1
  9
$CEPSNTYPE
380
     0
  9
$PSTYLEMODE
290
     1
  9
$FINGERPRINTGUID
  2
{b9e96cbb-672f-4fab-b3cd-167ff288fe9c}
  9
$VERSIONGUID
  2
{FAEB1C32-E019-11D5-929B-00C0DF256EC4}
  9
$EXTNAMES
290
     1
  9
$PSVPSCALE
 40
0.0
  9
$OLESTARTUP
290
     0
  0
ENDSEC
  0
SECTION
  2
CLASSES
  0
CLASS
  1
ACDBDICTIONARYWDFLT
  2
AcDbDictionaryWithDefault
  3
ObjectDBX Classes
 90
        0
280
     0
281
     0
  0
CLASS
  1
VISUALSTYLE
  2
AcDbVisualStyle
  3
ObjectDBX Classes
 90
     4095
280
     0
281
     0
  0
CLASS
  1
MATERIAL
  2
AcDbMaterial
  3
ObjectDBX Classes
 90
     1153
280
     0
281
     0
  0
CLASS
  1
SCALE
  2
AcDbScale
  3
ObjectDBX Classes
 90
     1153
280
     0
281
     0
  0
CLASS
  1
TABLESTYLE
  2
AcDbTableStyle
  3
ObjectDBX Classes
 90
     4095
280
     0
281
     0
  0
CLASS
  1
MLEADERSTYLE
  2
AcDbMLeaderStyle
  3
ACDB_MLEADERSTYLE_CLASS
 90
     4095
280
     0
281
     0
  0
CLASS
  1
SUN
  2
AcDbSun
  3
SCENEOE
 90
     1153
280
     0
281
     0
  0
CLASS
  1
ACDBPLACEHOLDER
  2
AcDbPlaceHolder
  3
ObjectDBX Classes
 90
        0
280
     0
281
     0
  0
CLASS
  1
LAYOUT
  2
AcDbLayout
  3
ObjectDBX Classes
 90
        0
280
     0
281
     0
  0
ENDSEC
  0
SECTION
  2
TABLES
  0
TABLE
  2
VPORT
  5
8
330
0
100
AcDbSymbolTable
 70
     1
  0
VPORT
  5
29
330
8
100
AcDbSymbolTableRecord
100
AcDbViewportTableRecord
  2
*Active
 70
     0
 10
0.0
 20
0.0
 11
1.0
 21
1.0
 12
139.7
 22
107.95
 13
0.0
 23
0.0
 14
10.0
 24
10.0
 15
10.0
 25
10.0
 16
0.0
 26
0.0
 36
1.0
 17
0.0
 27
0.0
 37
0.0
 40
215.9
 41
1.2941176471
 42
50.0
 43
0.0
 44
0.0
 50
0.0
 51
0.0
 71
     0
 72
  2000
 73
     1
 74
     3
 75
     0
 76
     0
 77
     0
 78
     0
281
     0
 65
     1
110
0.0
120
0.0
130
0.0
111
1.0
121
0.0
131
0.0
112
0.0
122
1.0
132
0.0
 79
     0
146
0.0
  0
ENDTAB
  0
TABLE
  2
LTYPE
  5
5
330
0
100
AcDbSymbolTable
 70
     6
  0
LTYPE
  5
14
330
5
100
AcDbSymbolTableRecord
100
AcDbLinetypeTableRecord
  2
ByBlock
 70
     0
  3

 72
    65
 73
     0
 40
0.0
  0
LTYPE
  5
15
330
5
100
AcDbSymbolTableRecord
100
AcDbLinetypeTableRecord
  2
ByLayer
 70
     0
  3

 72
    65
 73
     0
 40
0.0
  0
LTYPE
  5
16
330
5
100
AcDbSymbolTableRecord
100
AcDbLinetypeTableRecord
  2
Continuous
 70
     0
  3
Solid line
 72
    65
 73
     0
 40
0.0
  0
LTYPE
  5
6E
330
5
100
AcDbSymbolTableRecord
100
AcDbLinetypeTableRecord
  2
HIDDEN
 70
     0
  3
Hidden __ __ __ __ __ __ __ __ __ __ __ __ __ __
 72
    65
 73
     2
 40
1.905
 49
1.27
 74
     0
 49
-0.635
 74
     0
  0
LTYPE
  5
6F
330
5
100
AcDbSymbolTableRecord
100
AcDbLinetypeTableRecord
  2
PHANTOM
 70
     0
  3
Phantom ______  __  __  ______  __  __  ______
 72
    65
 73
     6
 40
12.7
 49
6.35
 74
     0
 49
-1.27
 74
     0
 49
1.27
 74
     0
 49
-1.27
 74
     0
 49
1.27
 74
     0
 49
-1.27
 74
     0
  0
LTYPE
  5
70
330
5
100
AcDbSymbolTableRecord
100
AcDbLinetypeTableRecord
  2
CENTER
 70
     0
  3
Center ____ _ ____ _ ____ _ ____ _ ____ _ ____
 72
    65
 73
     4
 40
10.16
 49
6.35
 74
     0
 49
-1.27
 74
     0
 49
1.27
 74
     0
 49
-1.27
 74
     0
  0
LTYPE
  5
71
330
5
100
AcDbSymbolTableRecord
100
AcDbLinetypeTableRecord
  2
CENTERX2
 70
     0
  3
Center (2x) ________  __  ________  __  _____
 72
    65
 73
     4
 40
20.32
 49
12.7
 74
     0
 49
-2.54
 74
     0
 49
2.54
 74
     0
 49
-2.54
 74
     0
  0
LTYPE
  5
72
330
5
100
AcDbSymbolTableRecord
100
AcDbLinetypeTableRecord
  2
DOT2
 70
     0
  3
Dot (.5x) ........................................
 72
    65
 73
     2
 40
0.635
 49
0.0
 74
     0
 49
-0.635
 74
     0
  0
ENDTAB
  0
TABLE
  2
LAYER
  5
2
330
0
100
AcDbSymbolTable
 70
    17
  0
LAYER
  5
10
330
2
100
AcDbSymbolTableRecord
100
AcDbLayerTableRecord
  2
0
 70
     0
 62
     7
  6
Continuous
370
    -3
390
F
  0
LAYER
  5
73
330
2
100
AcDbSymbolTableRecord
100
AcDbLayerTableRecord
  2
FORMAT
 70
     0
 62
     7
  6
Continuous
370
    -3
390
F
  0
LAYER
  5
74
330
2
100
AcDbSymbolTableRecord
100
AcDbLayerTableRecord
  2
YARDIMCI_GEOMETRI
 70
     0
 62
    -6
  6
Continuous
290
     0
370
    -3
390
F
  0
LAYER
  5
75
330
2
100
AcDbSymbolTableRecord
100
AcDbLayerTableRecord
  2
SAYFA_CERCEVESI
 70
     0
 62
     7
  6
Continuous
370
    25
390
F
  0
LAYER
  5
76
330
2
100
AcDbSymbolTableRecord
100
AcDbLayerTableRecord
  2
ANTET
 70
     0
 62
     7
  6
Continuous
370
    -3
390
F
  0
LAYER
  5
77
330
2
100
AcDbSymbolTableRecord
100
AcDbLayerTableRecord
  2
OLCU
 70
     0
 62
   150
  6
Continuous
370
    -3
390
F
  0
LAYER
  5
78
330
2
100
AcDbSymbolTableRecord
100
AcDbLayerTableRecord
  2
METIN
 70
     0
 62
    96
  6
Continuous
370
    -3
390
F
  0
LAYER
  5
79
330
2
100
AcDbSymbolTableRecord
100
AcDbLayerTableRecord
  2
BALON
 70
     0
 62
     5
  6
Continuous
370
    -3
390
F
  0
LAYER
  5
7A
330
2
100
AcDbSymbolTableRecord
100
AcDbLayerTableRecord
  2
VURGU
 70
     0
 62
     7
  6
Continuous
370
    -3
390
F
  0
LAYER
  5
7B
330
2
100
AcDbSymbolTableRecord
100
AcDbLayerTableRecord
  2
SILIK
 70
     0
 62
     7
  6
Continuous
370
    -3
390
F
  0
LAYER
  5
7C
330
2
100
AcDbSymbolTableRecord
100
AcDbLayerTableRecord
  2
MODEL
 70
     0
 62
     7
  6
Continuous
370
    -3
390
F
  0
LAYER
  5
7D
330
2
100
AcDbSymbolTableRecord
100
AcDbLayerTableRecord
  2
DETAYLANDıRMA
 70
     0
 62
   190
  6
Continuous
370
    -3
390
F
  0
LAYER
  5
7E
330
2
100
AcDbSymbolTableRecord
100
AcDbLayerTableRecord
  2
TOLERANS
 70
     0
 62
   230
  6
Continuous
370
    -3
390
F
  0
LAYER
  5
7F
330
2
100
AcDbSymbolTableRecord
100
AcDbLayerTableRecord
  2
MERKEZ_CIZGILERI
 70
     0
 62
    30
  6
Continuous
370
    -3
390
F
  0
LAYER
  5
80
330
2
100
AcDbSymbolTableRecord
100
AcDbLayerTableRecord
  2
KESIT-DETAY_CIZGILERI
 70
     0
 62
     7
  6
Continuous
370
    -3
390
F
  0
LAYER
  5
81
330
2
100
AcDbSymbolTableRecord
100
AcDbLayerTableRecord
  2
\U+041E\U+0421\U+0415\U+0412\U+042B\U+0415
 70
     0
 62
     7
  6
Continuous
370
    -3
390
F
  0
LAYER
  5
82
330
2
100
AcDbSymbolTableRecord
100
AcDbLayerTableRecord
  2
\U+0412\U+041E\U+0414\U+042F\U+041D\U+042B\U+0415_\U+0417\U+041D\U+0410\U+041A\U+0418
 70
     0
 62
    11
  6
Continuous
370
    -3
390
F
  0
ENDTAB
  0
TABLE
  2
STYLE
  5
3
330
0
100
AcDbSymbolTable
 70
     1
  0
STYLE
  5
11
330
3
100
AcDbSymbolTableRecord
100
AcDbTextStyleTableRecord
  2
Standard
 70
     0
 40
0.0
 41
1.0
 50
0.0
 71
     0
 42
3.5
  3
txt
  4

  0
ENDTAB
  0
TABLE
  2
VIEW
  5
6
330
0
100
AcDbSymbolTable
 70
     0
  0
ENDTAB
  0
TABLE
  2
UCS
  5
7
330
0
100
AcDbSymbolTable
 70
     0
  0
ENDTAB
  0
TABLE
  2
APPID
  5
9
330
0
100
AcDbSymbolTable
 70
     1
  0
APPID
  5
12
330
9
100
AcDbSymbolTableRecord
100
AcDbRegAppTableRecord
  2
ACAD
 70
     0
  0
ENDTAB
  0
TABLE
  2
DIMSTYLE
  5
A
330
0
100
AcDbSymbolTable
 70
     1
100
AcDbDimStyleTable
  0
DIMSTYLE
105
27
330
A
100
AcDbSymbolTableRecord
100
AcDbDimStyleTableRecord
  2
ISO-25
 70
     0
 41
2.5
 42
0.625
 43
3.75
 44
1.25
 73
     0
 74
     0
 77
     1
 78
     8
140
2.5
141
2.5
143
0.0393700787
147
0.625
171
     3
172
     1
178
     0
271
     2
272
     2
274
     3
278
    44
283
     0
284
     8
340
11
  0
ENDTAB
  0
TABLE
  2
BLOCK_RECORD
  5
1
330
0
100
AcDbSymbolTable
 70
     5
  0
BLOCK_RECORD
  5
1F
330
1
100
AcDbSymbolTableRecord
100
AcDbBlockTableRecord
  2
*Model_Space
340
22
  0
BLOCK_RECORD
  5
1B
330
1
100
AcDbSymbolTableRecord
100
AcDbBlockTableRecord
  2
*Paper_Space
340
1E
  0
BLOCK_RECORD
  5
23
330
1
100
AcDbSymbolTableRecord
100
AcDbBlockTableRecord
  2
*Paper_Space0
340
26
  0
BLOCK_RECORD
  5
C8
330
1
100
AcDbSymbolTableRecord
100
AcDbBlockTableRecord
  2
SW_CENTERMARKSYMBOL_0
340
0
102
{BLKREFS
331
D3
102
}
  0
BLOCK_RECORD
  5
F3
330
1
100
AcDbSymbolTableRecord
100
AcDbBlockTableRecord
  2
SW_CENTERMARKSYMBOL_1
340
0
102
{BLKREFS
331
FE
102
}
  0
BLOCK_RECORD
  5
FF
330
1
100
AcDbSymbolTableRecord
100
AcDbBlockTableRecord
  2
SW_CENTERMARKSYMBOL_2
340
0
102
{BLKREFS
331
10A
102
}
  0
BLOCK_RECORD
  5
10B
330
1
100
AcDbSymbolTableRecord
100
AcDbBlockTableRecord
  2
SW_CENTERMARKSYMBOL_3
340
0
102
{BLKREFS
331
116
102
}
  0
ENDTAB
  0
ENDSEC
  0
SECTION
  2
BLOCKS
  0
BLOCK
  5
20
330
1F
100
AcDbEntity
  8
0
100
AcDbBlockBegin
  2
*Model_Space
 70
     0
 10
0.0
 20
0.0
 30
0.0
  3
*Model_Space
  1

  0
ENDBLK
  5
21
330
1F
100
AcDbEntity
  8
0
100
AcDbBlockEnd
  0
BLOCK
  5
1C
330
1B
100
AcDbEntity
 67
     1
  8
0
100
AcDbBlockBegin
  2
*Paper_Space
 70
     0
 10
0.0
 20
0.0
 30
0.0
  3
*Paper_Space
  1

  0
ENDBLK
  5
1D
330
1B
100
AcDbEntity
 67
     1
  8
0
100
AcDbBlockEnd
  0
BLOCK
  5
24
330
23
100
AcDbEntity
  8
0
100
AcDbBlockBegin
  2
*Paper_Space0
 70
     0
 10
0.0
 20
0.0
 30
0.0
  3
*Paper_Space0
  1

  0
ENDBLK
  5
25
330
23
100
AcDbEntity
  8
0
100
AcDbBlockEnd
  0
BLOCK
  5
C9
330
C8
100
AcDbEntity
  8
0
100
AcDbBlockBegin
  2
SW_CENTERMARKSYMBOL_0
 70
     0
 10
0.0
 20
0.0
 30
0.0
  3
SW_CENTERMARKSYMBOL_0
  1

  0
LINE
  5
CB
330
C8
100
AcDbEntity
  8
FORMAT
 62
     0
100
AcDbLine
 10
0.0
 20
0.0
 30
0.0
 11
0.0
 21
2.5
 31
0.0
  0
LINE
  5
CC
330
C8
100
AcDbEntity
  8
FORMAT
 62
     0
100
AcDbLine
 10
0.0
 20
0.0
 30
0.0
 11
-2.5
 21
0.0
 31
0.0
  0
LINE
  5
CD
330
C8
100
AcDbEntity
  8
FORMAT
 62
     0
100
AcDbLine
 10
0.0
 20
0.0
 30
0.0
 11
0.0
 21
-2.5
 31
0.0
  0
LINE
  5
CE
330
C8
100
AcDbEntity
  8
FORMAT
 62
     0
100
AcDbLine
 10
0.0
 20
0.0
 30
0.0
 11
2.5
 21
0.0
 31
0.0
  0
LINE
  5
CF
330
C8
100
AcDbEntity
  8
FORMAT
 62
     0
100
AcDbLine
 10
0.0
 20
5.0
 30
0.0
 11
0.0
 21
28.2
 31
0.0
  0
LINE
  5
D0
330
C8
100
AcDbEntity
  8
FORMAT
 62
     0
100
AcDbLine
 10
-5.0
 20
0.0
 30
0.0
 11
-28.2
 21
0.0
 31
0.0
  0
LINE
  5
D1
330
C8
100
AcDbEntity
  8
FORMAT
 62
     0
100
AcDbLine
 10
0.0
 20
-5.0
 30
0.0
 11
0.0
 21
-28.2
 31
0.0
  0
LINE
  5
D2
330
C8
100
AcDbEntity
  8
FORMAT
 62
     0
100
AcDbLine
 10
5.0
 20
0.0
 30
0.0
 11
28.2
 21
0.0
 31
0.0
  0
ENDBLK
  5
CA
330
C8
100
AcDbEntity
  8
0
100
AcDbBlockEnd
  0
BLOCK
  5
F4
330
F3
100
AcDbEntity
  8
0
100
AcDbBlockBegin
  2
SW_CENTERMARKSYMBOL_1
 70
     0
 10
0.0
 20
0.0
 30
0.0
  3
SW_CENTERMARKSYMBOL_1
  1

  0
LINE
  5
F6
330
F3
100
AcDbEntity
  8
FORMAT
 62
     0
100
AcDbLine
 10
0.0
 20
0.0
 30
0.0
 11
0.0
 21
2.5
 31
0.0
  0
LINE
  5
F7
330
F3
100
AcDbEntity
  8
FORMAT
 62
     0
100
AcDbLine
 10
0.0
 20
0.0
 30
0.0
 11
-2.5
 21
0.0
 31
0.0
  0
LINE
  5
F8
330
F3
100
AcDbEntity
  8
FORMAT
 62
     0
100
AcDbLine
 10
0.0
 20
0.0
 30
0.0
 11
0.0
 21
-2.5
 31
0.0
  0
LINE
  5
F9
330
F3
100
AcDbEntity
  8
FORMAT
 62
     0
100
AcDbLine
 10
0.0
 20
0.0
 30
0.0
 11
2.5
 21
0.0
 31
0.0
  0
LINE
  5
FA
330
F3
100
AcDbEntity
  8
FORMAT
 62
     0
100
AcDbLine
 10
0.0
 20
5.0
 30
0.0
 11
0.0
 21
34.0
 31
0.0
  0
LINE
  5
FB
330
F3
100
AcDbEntity
  8
FORMAT
 62
     0
100
AcDbLine
 10
-5.0
 20
0.0
 30
0.0
 11
-34.0
 21
0.0
 31
0.0
  0
LINE
  5
FC
330
F3
100
AcDbEntity
  8
FORMAT
 62
     0
100
AcDbLine
 10
0.0
 20
-5.0
 30
0.0
 11
0.0
 21
-34.0
 31
0.0
  0
LINE
  5
FD
330
F3
100
AcDbEntity
  8
FORMAT
 62
     0
100
AcDbLine
 10
5.0
 20
0.0
 30
0.0
 11
34.0
 21
0.0
 31
0.0
  0
ENDBLK
  5
F5
330
F3
100
AcDbEntity
  8
0
100
AcDbBlockEnd
  0
BLOCK
  5
100
330
FF
100
AcDbEntity
  8
0
100
AcDbBlockBegin
  2
SW_CENTERMARKSYMBOL_2
 70
     0
 10
0.0
 20
0.0
 30
0.0
  3
SW_CENTERMARKSYMBOL_2
  1

  0
LINE
  5
102
330
FF
100
AcDbEntity
  8
FORMAT
 62
     0
100
AcDbLine
 10
0.0
 20
0.0
 30
0.0
 11
0.0
 21
2.5
 31
0.0
  0
LINE
  5
103
330
FF
100
AcDbEntity
  8
FORMAT
 62
     0
100
AcDbLine
 10
0.0
 20
0.0
 30
0.0
 11
-2.5
 21
0.0
 31
0.0
  0
LINE
  5
104
330
FF
100
AcDbEntity
  8
FORMAT
 62
     0
100
AcDbLine
 10
0.0
 20
0.0
 30
0.0
 11
0.0
 21
-2.5
 31
0.0
  0
LINE
  5
105
330
FF
100
AcDbEntity
  8
FORMAT
 62
     0
100
AcDbLine
 10
0.0
 20
0.0
 30
0.0
 11
2.5
 21
0.0
 31
0.0
  0
LINE
  5
106
330
FF
100
AcDbEntity
  8
FORMAT
 62
     0
100
AcDbLine
 10
0.0
 20
5.0
 30
0.0
 11
0.0
 21
9.5
 31
0.0
  0
LINE
  5
107
330
FF
100
AcDbEntity
  8
FORMAT
 62
     0
100
AcDbLine
 10
-5.0
 20
0.0
 30
0.0
 11
-9.5
 21
0.0
 31
0.0
  0
LINE
  5
108
330
FF
100
AcDbEntity
  8
FORMAT
 62
     0
100
AcDbLine
 10
0.0
 20
-5.0
 30
0.0
 11
0.0
 21
-9.5
 31
0.0
  0
LINE
  5
109
330
FF
100
AcDbEntity
  8
FORMAT
 62
     0
100
AcDbLine
 10
5.0
 20
0.0
 30
0.0
 11
9.5
 21
0.0
 31
0.0
  0
ENDBLK
  5
101
330
FF
100
AcDbEntity
  8
0
100
AcDbBlockEnd
  0
BLOCK
  5
10C
330
10B
100
AcDbEntity
  8
0
100
AcDbBlockBegin
  2
SW_CENTERMARKSYMBOL_3
 70
     0
 10
0.0
 20
0.0
 30
0.0
  3
SW_CENTERMARKSYMBOL_3
  1

  0
LINE
  5
10E
330
10B
100
AcDbEntity
  8
FORMAT
 62
     0
100
AcDbLine
 10
0.0
 20
0.0
 30
0.0
 11
0.0
 21
2.5
 31
0.0
  0
LINE
  5
10F
330
10B
100
AcDbEntity
  8
FORMAT
 62
     0
100
AcDbLine
 10
0.0
 20
0.0
 30
0.0
 11
-2.5
 21
0.0
 31
0.0
  0
LINE
  5
110
330
10B
100
AcDbEntity
  8
FORMAT
 62
     0
100
AcDbLine
 10
0.0
 20
0.0
 30
0.0
 11
0.0
 21
-2.5
 31
0.0
  0
LINE
  5
111
330
10B
100
AcDbEntity
  8
FORMAT
 62
     0
100
AcDbLine
 10
0.0
 20
0.0
 30
0.0
 11
2.5
 21
0.0
 31
0.0
  0
LINE
  5
112
330
10B
100
AcDbEntity
  8
FORMAT
 62
     0
100
AcDbLine
 10
0.0
 20
5.0
 30
0.0
 11
0.0
 21
9.5
 31
0.0
  0
LINE
  5
113
330
10B
100
AcDbEntity
  8
FORMAT
 62
     0
100
AcDbLine
 10
-5.0
 20
0.0
 30
0.0
 11
-9.5
 21
0.0
 31
0.0
  0
LINE
  5
114
330
10B
100
AcDbEntity
  8
FORMAT
 62
     0
100
AcDbLine
 10
0.0
 20
-5.0
 30
0.0
 11
0.0
 21
-9.5
 31
0.0
  0
LINE
  5
115
330
10B
100
AcDbEntity
  8
FORMAT
 62
     0
100
AcDbLine
 10
5.0
 20
0.0
 30
0.0
 11
9.5
 21
0.0
 31
0.0
  0
ENDBLK
  5
10D
330
10B
100
AcDbEntity
  8
0
100
AcDbBlockEnd
  0
ENDSEC
  0
SECTION
  2
ENTITIES
  0
LINE
  5
83
330
1F
100
AcDbEntity
  8
0
  6
Continuous
 62
     7
370
    25
100
AcDbLine
 10
171.1807140607
 20
-11.7615714286
 30
0.0
 11
211.1807140607
 21
-11.7615714286
 31
0.0
  0
LINE
  5
84
330
1F
100
AcDbEntity
  8
0
  6
Continuous
 62
     7
370
    25
100
AcDbLine
 10
71.1807140607
 20
-11.7615714286
 30
0.0
 11
111.1807140607
 21
-11.7615714286
 31
0.0
  0
LINE
  5
85
330
1F
100
AcDbEntity
  8
0
  6
Continuous
 62
     7
370
    25
100
AcDbLine
 10
74.2698185373
 20
162.2384285714
 30
0.0
 11
71.1807140607
 21
162.2384285714
 31
0.0
  0
LINE
  5
86
330
1F
100
AcDbEntity
  8
0
  6
Continuous
 62
     7
370
    25
100
AcDbLine
 10
109.6815825909
 20
162.2384285714
 30
0.0
 11
88.1740737246
 21
162.2384285714
 31
0.0
  0
LINE
  5
87
330
1F
100
AcDbEntity
  8
0
  6
Continuous
 62
     7
370
    25
100
AcDbLine
 10
194.2698185373
 20
162.2384285714
 30
0.0
 11
172.5813728833
 21
162.2384285714
 31
0.0
  0
LINE
  5
88
330
1F
100
AcDbEntity
  8
0
  6
Continuous
 62
     7
370
    25
100
AcDbLine
 10
211.1807140607
 20
162.2384285714
 30
0.0
 11
208.1740737246
 21
162.2384285714
 31
0.0
  0
LINE
  5
89
330
1F
100
AcDbEntity
  8
0
  6
Continuous
 62
     7
370
    25
100
AcDbLine
 10
109.6807140607
 20
230.2384285714
 30
0.0
 11
109.6807140607
 21
162.2380512419
 31
0.0
  0
LINE
  5
8A
330
1F
100
AcDbEntity
  8
0
  6
Continuous
 62
     7
370
    25
100
AcDbLine
 10
172.6807140607
 20
162.2025160501
 30
0.0
 11
172.6807140607
 21
230.2384285714
 31
0.0
  0
LINE
  5
8B
330
1F
100
AcDbEntity
  8
0
  6
Continuous
 62
     7
370
    25
100
AcDbLine
 10
74.1807140607
 20
177.2384285714
 30
0.0
 11
74.1807140607
 21
162.2384285714
 31
0.0
  0
LINE
  5
8C
330
1F
100
AcDbEntity
  8
0
  6
Continuous
 62
     7
370
    25
100
AcDbLine
 10
88.1807140607
 20
162.2379221398
 30
0.0
 11
88.1807140607
 21
177.2384285714
 31
0.0
  0
LINE
  5
8D
330
1F
100
AcDbEntity
  8
0
  6
Continuous
 62
     7
370
    25
100
AcDbLine
 10
194.1807140607
 20
177.2384285714
 30
0.0
 11
194.1807140607
 21
162.2384285714
 31
0.0
  0
LINE
  5
8E
330
1F
100
AcDbEntity
  8
0
  6
Continuous
 62
     7
370
    25
100
AcDbLine
 10
208.1807140607
 20
162.2379221398
 30
0.0
 11
208.1807140607
 21
177.2384285714
 31
0.0
  0
LINE
  5
8F
330
1F
100
AcDbEntity
  8
0
  6
Continuous
 62
     7
370
    25
100
AcDbLine
 10
211.1807140607
 20
77.2384285714
 30
0.0
 11
71.1807140607
 21
77.2384285714
 31
0.0
  0
LINE
  5
90
330
1F
100
AcDbEntity
  8
0
  6
Continuous
 62
     7
370
    25
100
AcDbLine
 10
71.1807140607
 20
84.2384285714
 30
0.0
 11
71.1807140607
 21
77.2384285714
 31
0.0
  0
LINE
  5
91
330
1F
100
AcDbEntity
  8
0
  6
Continuous
 62
     7
370
    25
100
AcDbLine
 10
211.1807140607
 20
84.2384285714
 30
0.0
 11
71.1807140607
 21
84.2384285714
 31
0.0
  0
LINE
  5
92
330
1F
100
AcDbEntity
  8
0
  6
Continuous
 62
     7
370
    25
100
AcDbLine
 10
211.1807140607
 20
84.2384285714
 30
0.0
 11
211.1807140607
 21
77.2384285714
 31
0.0
  0
LINE
  5
93
330
1F
100
AcDbEntity
  8
0
  6
Continuous
 62
     7
370
    25
100
AcDbLine
 10
71.1807140607
 20
73.2384285714
 30
0.0
 11
71.1807140607
 21
66.2384285714
 31
0.0
  0
LINE
  5
94
330
1F
100
AcDbEntity
  8
0
  6
Continuous
 62
     7
370
    25
100
AcDbLine
 10
211.1807140607
 20
73.2384285714
 30
0.0
 11
71.1807140607
 21
73.2384285714
 31
0.0
  0
LINE
  5
95
330
1F
100
AcDbEntity
  8
0
  6
Continuous
 62
     7
370
    25
100
AcDbLine
 10
211.1807140607
 20
73.2384285714
 30
0.0
 11
211.1807140607
 21
66.2384285714
 31
0.0
  0
LINE
  5
96
330
1F
100
AcDbEntity
  8
0
  6
Continuous
 62
     7
370
    25
100
AcDbLine
 10
211.1807140607
 20
66.2384285714
 30
0.0
 11
71.1807140607
 21
66.2384285714
 31
0.0
  0
SPLINE
  5
97
330
1F
100
AcDbEntity
  8
0
  6
Continuous
 62
     7
370
    25
100
AcDbSpline
210
0.0
220
0.0
230
1.0
 70
     8
 71
     3
 72
    12
 73
     8
 74
     0
 42
0.00000001
 43
0.00000001
 40
0.0
 40
0.0
 40
0.0
 40
0.0
 40
0.2143647011594338
 40
0.4287125689862891
 40
0.6434970542938002
 40
0.8585678617129181
 40
1.0
 40
1.0
 40
1.0
 40
1.0
 10
81.18071406074249
 20
161.9563621261437
 30
0.0
 10
80.39543048548678
 20
161.9627335549952
 30
0.0
 10
78.82492500062985
 20
161.9754759123715
 30
0.0
 10
76.72613066012423
 20
162.0649725728616
 30
0.0
 10
75.1568608071237
 20
162.1619486291245
 30
0.0
 10
74.26443331104247
 20
162.2316159416976
 30
0.0
 10
74.2682889321287
 20
162.231407829936
 30
0.0
 10
74.26981853725879
 20
162.2313252676689
 30
0.0
  0
SPLINE
  5
98
330
1F
100
AcDbEntity
  8
0
  6
Continuous
 62
     7
370
    25
100
AcDbSpline
210
0.0
220
0.0
230
1.0
 70
     8
 71
     3
 72
    13
 73
     9
 74
     0
 42
0.00000001
 43
0.00000001
 40
0.0
 40
0.0
 40
0.0
 40
0.0
 40
0.0036719561747093
 40
0.2177134803259544
 40
0.4317473869509552
 40
0.6463794268254545
 40
0.8612881890138449
 40
1.0
 40
1.0
 40
1.0
 40
1.0
 10
88.17407372458194
 20
162.2379085278799
 30
0.0
 10
88.17628437003802
 20
162.2380816315004
 30
0.0
 10
88.3073554648736
 20
162.2483450959576
 30
0.0
 10
87.84145739779412
 20
162.2106956169809
 30
0.0
 10
86.74885307685199
 20
162.13080904151
 30
0.0
 10
84.93682478768461
 20
162.0301305987815
 30
0.0
 10
82.98146254004038
 20
161.9658882184709
 30
0.0
 10
81.68806456363453
 20
161.9590460477398
 30
0.0
 10
81.18071406074249
 20
161.9563621261437
 30
0.0
  0
SPLINE
  5
99
330
1F
100
AcDbEntity
  8
0
  6
Continuous
 62
     7
370
    25
100
AcDbSpline
210
0.0
220
0.0
230
1.0
 70
     8
 71
     3
 72
    19
 73
    15
 74
     0
 42
0.00000001
 43
0.00000001
 40
0.0
 40
0.0
 40
0.0
 40
0.0
 40
0.1009613198301534
 40
0.2049874883051341
 40
0.3059130955365409
 40
0.4095461865872884
 40
0.5147217818345878
 40
0.6227580900745825
 40
0.6769337452099994
 40
0.7311074696895185
 40
0.7869886106771502
 40
0.8428673721554802
 40
0.9466772441116191
 40
1.0
 40
1.0
 40
1.0
 40
1.0
 10
141.1807140607425
 20
156.3355925169081
 30
0.0
 10
139.5005781798081
 20
156.3661203852314
 30
0.0
 10
136.0893031011595
 20
156.4281028460532
 30
0.0
 10
131.1487983148576
 20
156.9105822801343
 30
0.0
 10
126.4576031874275
 20
157.6208515001754
 30
0.0
 10
122.1515113723879
 20
158.5065242092996
 30
0.0
 10
118.2665402824149
 20
159.4865806517287
 30
0.0
 10
115.5090786327501
 20
160.2930541095697
 30
0.0
 10
113.6474675353584
 20
160.8790471323269
 30
0.0
 10
112.429763602955
 20
161.2791270107614
 30
0.0
 10
111.4112505016827
 20
161.625418126544
 30
0.0
 10
110.384668129646
 20
161.9843170091738
 30
0.0
 10
109.769169189665
 20
162.206432703255
 30
0.0
 10
109.7037742722682
 20
162.2300397555301
 30
0.0
 10
109.6815825908554
 20
162.2380507784665
 30
0.0
  0
SPLINE
  5
9A
330
1F
100
AcDbEntity
  8
0
  6
Continuous
 62
     7
370
    25
100
AcDbSpline
210
0.0
220
0.0
230
1.0
 70
     8
 71
     3
 72
    20
 73
    16
 74
     0
 42
0.00000001
 43
0.00000001
 40
0.0
 40
0.0
 40
0.0
 40
0.0
 40
0.0440943655870905
 40
0.1482414628745373
 40
0.2473209543756535
 40
0.3490646086091264
 40
0.452222048242869
 40
0.5581027478148645
 40
0.666080852633909
 40
0.7217365872144264
 40
0.7773897126629316
 40
0.8320790625789511
 40
0.8867659755622523
 40
0.9433835914572248
 40
0.9999999999999999
 40
0.9999999999999999
 40
0.9999999999999999
 40
0.9999999999999999
 10
172.581372883282
 20
162.2025127859967
 30
0.0
 10
172.6042690758576
 20
162.2107864005257
 30
0.0
 10
172.6812441051268
 20
162.2386015806446
 30
0.0
 10
171.9386435912985
 20
161.970128936459
 30
0.0
 10
170.4159888307575
 20
161.4384446957988
 30
0.0
 10
168.1284316419825
 20
160.6833413959765
 30
0.0
 10
165.1173515114949
 20
159.7741375360647
 30
0.0
 10
161.4089350680213
 20
158.7896765224686
 30
0.0
 10
157.7780482917607
 20
157.9916846365457
 30
0.0
 10
154.584628249951
 20
157.4238145480255
 30
0.0
 10
152.0584740071474
 20
157.0486277970365
 30
0.0
 10
149.4574010555713
 20
156.7429440115922
 30
0.0
 10
146.7719462523112
 20
156.5138663438785
 30
0.0
 10
144.0051467350066
 20
156.3644744634377
 30
0.0
 10
142.1221849265014
 20
156.3452197639839
 30
0.0
 10
141.1807140607425
 20
156.3355925169081
 30
0.0
  0
SPLINE
  5
9B
330
1F
100
AcDbEntity
  8
0
  6
Continuous
 62
     7
370
    25
100
AcDbSpline
210
0.0
220
0.0
230
1.0
 70
     8
 71
     3
 72
    12
 73
     8
 74
     0
 42
0.00000001
 43
0.00000001
 40
0.0
 40
0.0
 40
0.0
 40
0.0
 40
0.2143647011594338
 40
0.4287125689862898
 40
0.6434970542938002
 40
0.8585678617129189
 40
1.0
 40
1.0
 40
1.0
 40
1.0
 10
201.1807140607425
 20
161.9563621261437
 30
0.0
 10
200.3954304854868
 20
161.9627335549952
 30
0.0
 10
198.8249250006299
 20
161.9754759123715
 30
0.0
 10
196.7261306601242
 20
162.0649725728616
 30
0.0
 10
195.1568608071237
 20
162.1619486291245
 30
0.0
 10
194.2644333110425
 20
162.2316159416976
 30
0.0
 10
194.2682889321287
 20
162.231407829936
 30
0.0
 10
194.2698185372588
 20
162.2313252676689
 30
0.0
  0
SPLINE
  5
9C
330
1F
100
AcDbEntity
  8
0
  6
Continuous
 62
     7
370
    25
100
AcDbSpline
210
0.0
220
0.0
230
1.0
 70
     8
 71
     3
 72
    13
 73
     9
 74
     0
 42
0.00000001
 43
0.00000001
 40
0.0
 40
0.0
 40
0.0
 40
0.0
 40
0.0036719561747094
 40
0.2177134803259543
 40
0.4317473869509545
 40
0.6463794268254538
 40
0.8612881890138442
 40
1.0
 40
1.0
 40
1.0
 40
1.0
 10
208.174073724582
 20
162.2379085278799
 30
0.0
 10
208.176284370038
 20
162.2380816315004
 30
0.0
 10
208.3073554648738
 20
162.2483450959574
 30
0.0
 10
207.8414573977941
 20
162.210695616981
 30
0.0
 10
206.748853076852
 20
162.13080904151
 30
0.0
 10
204.9368247876847
 20
162.0301305987814
 30
0.0
 10
202.9814625400404
 20
161.9658882184709
 30
0.0
 10
201.6880645636345
 20
161.9590460477398
 30
0.0
 10
201.1807140607425
 20
161.9563621261437
 30
0.0
  0
LINE
  5
9D
330
1F
100
AcDbEntity
  8
0
  6
Continuous
 62
     7
370
    25
100
AcDbLine
 10
111.1807140607
 20
65.2384285714
 30
0.0
 11
171.1807140607
 21
65.2384285714
 31
0.0
  0
LINE
  5
9E
330
1F
100
AcDbEntity
  8
0
  6
Continuous
 62
     7
370
    25
100
AcDbLine
 10
111.1807140607
 20
-11.7615714286
 30
0.0
 11
111.1807140607
 21
65.2384285714
 31
0.0
  0
LINE
  5
9F
330
1F
100
AcDbEntity
  8
0
  6
Continuous
 62
     7
370
    25
100
AcDbLine
 10
171.1807140607
 20
65.2384285714
 30
0.0
 11
171.1807140607
 21
-11.7615714286
 31
0.0
  0
LINE
  5
A0
330
1F
100
AcDbEntity
  8
0
  6
Continuous
 62
     7
370
    25
100
AcDbLine
 10
71.1807140607
 20
66.2384285714
 30
0.0
 11
71.1807140607
 21
-11.7615714286
 31
0.0
  0
LINE
  5
A1
330
1F
100
AcDbEntity
  8
0
  6
Continuous
 62
     7
370
    25
100
AcDbLine
 10
71.1807140607
 20
162.2384285714
 30
0.0
 11
71.1807140607
 21
84.2384285714
 31
0.0
  0
LINE
  5
A2
330
1F
100
AcDbEntity
  8
0
  6
Continuous
 62
     7
370
    25
100
AcDbLine
 10
211.1807140607
 20
66.2384285714
 30
0.0
 11
211.1807140607
 21
-11.7615714286
 31
0.0
  0
LINE
  5
A3
330
1F
100
AcDbEntity
  8
0
  6
Continuous
 62
     7
370
    25
100
AcDbLine
 10
211.1807140607
 20
162.2384285714
 30
0.0
 11
211.1807140607
 21
84.2384285714
 31
0.0
  0
LINE
  5
A4
330
1F
100
AcDbEntity
  8
0
  6
Continuous
 62
     7
370
    25
100
AcDbLine
 10
71.1807140607
 20
77.2384285714
 30
0.0
 11
71.1807140607
 21
73.2384285714
 31
0.0
  0
LINE
  5
A5
330
1F
100
AcDbEntity
  8
0
  6
Continuous
 62
     7
370
    25
100
AcDbLine
 10
211.1807140607
 20
77.2384285714
 30
0.0
 11
211.1807140607
 21
73.2384285714
 31
0.0
  0
LINE
  5
A6
330
1F
100
AcDbEntity
  8
0
  6
Continuous
 62
     7
370
    25
100
AcDbLine
 10
141.1807140607
 20
230.2384285714
 30
0.0
 11
172.6807140607
 21
230.2384285714
 31
0.0
  0
LINE
  5
A7
330
1F
100
AcDbEntity
  8
0
  6
Continuous
 62
     7
370
    25
100
AcDbLine
 10
109.6807140607
 20
230.2384285714
 30
0.0
 11
141.1807140607
 21
230.2384285714
 31
0.0
  0
LINE
  5
A8
330
1F
100
AcDbEntity
  8
0
  6
Continuous
 62
     7
370
    25
100
AcDbLine
 10
81.1807140607
 20
177.2384285714
 30
0.0
 11
88.1807140607
 21
177.2384285714
 31
0.0
  0
LINE
  5
A9
330
1F
100
AcDbEntity
  8
0
  6
Continuous
 62
     7
370
    25
100
AcDbLine
 10
74.1807140607
 20
177.2384285714
 30
0.0
 11
81.1807140607
 21
177.2384285714
 31
0.0
  0
LINE
  5
AA
330
1F
100
AcDbEntity
  8
0
  6
Continuous
 62
     7
370
    25
100
AcDbLine
 10
201.1807140607
 20
177.2384285714
 30
0.0
 11
194.1807140607
 21
177.2384285714
 31
0.0
  0
LINE
  5
AB
330
1F
100
AcDbEntity
  8
0
  6
Continuous
 62
     7
370
    25
100
AcDbLine
 10
208.1807140607
 20
177.2384285714
 30
0.0
 11
201.1807140607
 21
177.2384285714
 31
0.0
  0
LINE
  5
AC
330
1F
100
AcDbEntity
  8
0
  6
Continuous
 62
     7
370
    25
100
AcDbLine
 10
345.9729969484
 20
177.2384285714
 30
0.0
 11
345.9729969484
 21
161.9632575742
 31
0.0
  0
LINE
  5
AD
330
1F
100
AcDbEntity
  8
0
  6
Continuous
 62
     7
370
    25
100
AcDbLine
 10
359.9729969484
 20
161.9563621261
 30
0.0
 11
359.9729969484
 21
177.2384285714
 31
0.0
  0
LINE
  5
AE
330
1F
100
AcDbEntity
  8
0
  6
Continuous
 62
     7
370
    25
100
AcDbLine
 10
321.4729969484
 20
230.2384285714
 30
0.0
 11
321.4729969484
 21
156.3561998061
 31
0.0
  0
LINE
  5
AF
330
1F
100
AcDbEntity
  8
0
  6
Continuous
 62
     7
370
    25
100
AcDbLine
 10
384.4729969484
 20
156.3355925169
 30
0.0
 11
384.4729969484
 21
230.2384285714
 31
0.0
  0
LINE
  5
B0
330
1F
100
AcDbEntity
  8
0
  6
Continuous
 62
     7
370
    25
100
AcDbLine
 10
439.5062275596
 20
84.2384285714
 30
0.0
 11
454.5062275596
 21
84.2384285714
 31
0.0
  0
LINE
  5
B1
330
1F
100
AcDbEntity
  8
0
  6
Continuous
 62
     7
370
    25
100
AcDbLine
 10
454.5062275596
 20
84.2384285714
 30
0.0
 11
454.5062275596
 21
77.2384285714
 31
0.0
  0
LINE
  5
B2
330
1F
100
AcDbEntity
  8
0
  6
Continuous
 62
     7
370
    25
100
AcDbLine
 10
454.5062275596
 20
77.2384285714
 30
0.0
 11
432.947993041
 21
77.2384285714
 31
0.0
  0
ARC
  5
B3
330
1F
100
AcDbEntity
  8
0
  6
Continuous
 62
     7
370
    25
100
AcDbCircle
 10
352.9729969484
 20
75.2384285714
 30
0.0
 40
79.99999999999997
100
AcDbArc
 50
1.4325437376
 51
358.5674562624
  0
LINE
  5
B4
330
1F
100
AcDbEntity
  8
0
  6
Continuous
 62
     7
370
    25
100
AcDbLine
 10
432.947993041
 20
73.2384285714
 30
0.0
 11
454.5062275596
 21
73.2384285714
 31
0.0
  0
LINE
  5
B5
330
1F
100
AcDbEntity
  8
0
  6
Continuous
 62
     7
370
    25
100
AcDbLine
 10
454.5062275596
 20
73.2384285714
 30
0.0
 11
454.5062275596
 21
66.2384285714
 31
0.0
  0
LINE
  5
B6
330
1F
100
AcDbEntity
  8
0
  6
Continuous
 62
     7
370
    25
100
AcDbLine
 10
454.5062275596
 20
66.2384285714
 30
0.0
 11
439.5062275596
 21
66.2384285714
 31
0.0
  0
ARC
  5
B7
330
1F
100
AcDbEntity
  8
0
  6
Continuous
 62
     7
370
    25
100
AcDbCircle
 10
352.9729969484
 20
75.2384285714
 30
0.0
 40
87.00000000000001
100
AcDbArc
 50
5.9377724516
 51
354.0622275484
  0
LINE
  5
B8
330
1F
100
AcDbEntity
  8
0
  6
Continuous
 62
     7
370
    25
100
AcDbLine
 10
345.9729969484
 20
177.2384285714
 30
0.0
 11
359.9729969484
 21
177.2384285714
 31
0.0
  0
LINE
  5
B9
330
1F
100
AcDbEntity
  8
0
  6
Continuous
 62
     7
370
    25
100
AcDbLine
 10
321.4729969484
 20
230.2384285714
 30
0.0
 11
384.4729969484
 21
230.2384285714
 31
0.0
  0
LINE
  5
BA
330
1F
100
AcDbEntity
  8
0
  6
Continuous
 62
     7
370
    25
100
AcDbLine
 10
71.1807140607
 20
285.673494185
 30
0.0
 11
211.1807140607
 21
285.673494185
 31
0.0
  0
LINE
  5
BB
330
1F
100
AcDbEntity
  8
0
  6
Continuous
 62
     7
370
    25
100
AcDbLine
 10
211.1807140607
 20
459.2067247962
 30
0.0
 11
71.1807140607
 21
459.2067247962
 31
0.0
  0
LINE
  5
BC
330
1F
100
AcDbEntity
  8
0
  6
Continuous
 62
     7
370
    25
100
AcDbLine
 10
211.1807140607
 20
459.2067247962
 30
0.0
 11
211.1807140607
 21
285.673494185
 31
0.0
  0
LINE
  5
BD
330
1F
100
AcDbEntity
  8
0
  6
Continuous
 62
     7
370
    25
100
AcDbLine
 10
71.1807140607
 20
459.2067247962
 30
0.0
 11
71.1807140607
 21
285.673494185
 31
0.0
  0
LINE
  5
BE
330
1F
100
AcDbEntity
  8
0
  6
Continuous
 62
     7
370
    25
100
AcDbLine
 10
111.1807140607
 20
459.0968706523
 30
0.0
 11
171.1807140607
 21
459.0968706523
 31
0.0
  0
LINE
  5
BF
330
1F
100
AcDbEntity
  8
0
  6
Continuous
 62
     7
370
    25
100
AcDbLine
 10
111.1807140607
 20
286.2501177178
 30
0.0
 11
111.1807140607
 21
459.0968706523
 31
0.0
  0
LINE
  5
C0
330
1F
100
AcDbEntity
  8
0
  6
Continuous
 62
     7
370
    25
100
AcDbLine
 10
171.1807140607
 20
286.2501177178
 30
0.0
 11
111.1807140607
 21
286.2501177178
 31
0.0
  0
LINE
  5
C1
330
1F
100
AcDbEntity
  8
0
  6
Continuous
 62
     7
370
    25
100
AcDbLine
 10
171.1807140607
 20
459.0968706523
 30
0.0
 11
171.1807140607
 21
286.2501177178
 31
0.0
  0
SPLINE
  5
C2
330
1F
100
AcDbEntity
  8
0
  6
Continuous
 62
     7
370
    25
100
AcDbSpline
210
0.0
220
0.0
230
1.0
 70
    11
 71
     3
 72
   122
 73
   118
 74
     0
 42
0.00000001
 43
0.00000001
 40
0.0
 40
0.0
 40
0.0
 40
0.0
 40
0.0312499999999999
 40
0.0312499999999999
 40
0.0468749999999998
 40
0.0468749999999998
 40
0.0546874999999998
 40
0.0546874999999998
 40
0.0624999999999997
 40
0.0624999999999997
 40
0.0937499999999997
 40
0.0937499999999997
 40
0.1093749999999996
 40
0.1093749999999996
 40
0.1249999999999996
 40
0.1249999999999996
 40
0.1562499999999995
 40
0.1562499999999995
 40
0.1874999999999995
 40
0.1874999999999995
 40
0.2031249999999995
 40
0.2031249999999995
 40
0.2187499999999995
 40
0.2187499999999995
 40
0.2499999999999995
 40
0.2499999999999995
 40
0.2656249999999995
 40
0.2656249999999995
 40
0.2812499999999995
 40
0.2812499999999995
 40
0.3124999999999995
 40
0.3124999999999995
 40
0.3203124999999995
 40
0.3203124999999995
 40
0.3281249999999994
 40
0.3281249999999994
 40
0.3437499999999993
 40
0.3437499999999993
 40
0.3593749999999992
 40
0.3593749999999992
 40
0.3749999999999991
 40
0.3749999999999991
 40
0.4062499999999988
 40
0.4062499999999988
 40
0.4218749999999986
 40
0.4218749999999986
 40
0.4374999999999984
 40
0.4374999999999984
 40
0.4687499999999981
 40
0.4687499999999981
 40
0.4843749999999979
 40
0.4843749999999979
 40
0.4999999999999978
 40
0.4999999999999978
 40
0.5156249999999976
 40
0.5156249999999976
 40
0.5234374999999976
 40
0.5234374999999976
 40
0.5312499999999976
 40
0.5312499999999976
 40
0.5624999999999973
 40
0.5624999999999973
 40
0.5781249999999972
 40
0.5781249999999972
 40
0.5937499999999972
 40
0.5937499999999972
 40
0.6249999999999971
 40
0.6249999999999971
 40
0.632812499999997
 40
0.632812499999997
 40
0.640624999999997
 40
0.640624999999997
 40
0.656249999999997
 40
0.656249999999997
 40
0.6718749999999972
 40
0.6718749999999972
 40
0.6796874999999973
 40
0.6796874999999973
 40
0.6874999999999973
 40
0.6874999999999973
 40
0.7187499999999976
 40
0.7187499999999976
 40
0.7343749999999977
 40
0.7343749999999977
 40
0.7421874999999977
 40
0.7421874999999977
 40
0.7499999999999978
 40
0.7499999999999978
 40
0.781249999999998
 40
0.781249999999998
 40
0.796874999999998
 40
0.796874999999998
 40
0.8124999999999981
 40
0.8124999999999981
 40
0.8281249999999981
 40
0.8281249999999981
 40
0.8359374999999982
 40
0.8359374999999982
 40
0.8437499999999983
 40
0.8437499999999983
 40
0.8749999999999984
 40
0.8749999999999984
 40
0.8906249999999987
 40
0.8906249999999987
 40
0.8984374999999988
 40
0.8984374999999988
 40
0.9062499999999988
 40
0.9062499999999988
 40
0.9374999999999992
 40
0.9374999999999992
 40
0.9453124999999993
 40
0.9453124999999993
 40
0.9531249999999994
 40
0.9531249999999994
 40
0.9687499999999996
 40
0.9687499999999996
 40
1.0
 40
1.0
 40
1.0
 40
1.0
 10
141.1807140607425
 20
346.9734941850168
 30
0.0
 10
142.8908784876766
 20
346.9734941850168
 30
0.0
 10
144.5700231827821
 20
347.1424690591055
 30
0.0
 10
147.0447210176046
 20
347.6372986376491
 30
0.0
 10
147.8622326913162
 20
347.842779454514
 30
0.0
 10
149.0772816454816
 20
348.2130466893305
 30
0.0
 10
149.4815487299131
 20
348.3472598527174
 30
0.0
 10
150.2789477572969
 20
348.6341165600089
 30
0.0
 10
150.6723545613717
 20
348.7867689331974
 30
0.0
 10
152.6136270942787
 20
349.5951792128816
 30
0.0
 10
154.0849642093018
 20
350.3849865658916
 30
0.0
 10
156.1734303973481
 20
351.7830593452109
 30
0.0
 10
156.8529882192093
 20
352.2878758036201
 30
0.0
 10
158.148940697745
 20
353.3532224766426
 30
0.0
 10
158.7666115400833
 20
353.9140014806165
 30
0.0
 10
160.5315665463408
 20
355.6792617868784
 30
0.0
 10
161.5917291483394
 20
356.9657750645421
 30
0.0
 10
163.4716915876531
 20
359.7717773314891
 30
0.0
 10
164.2623559339131
 20
361.2486958365947
 30
0.0
 10
165.2270300704208
 20
363.5650234803078
 30
0.0
 10
165.5117259995088
 20
364.3545438562768
 30
0.0
 10
166.0053370839779
 20
365.9696767433882
 30
0.0
 10
166.2148442401632
 20
366.7998136503999
 30
0.0
 10
166.7135807750444
 20
369.2920884416369
 30
0.0
 10
166.8795922941208
 20
370.9674233197643
 30
0.0
 10
166.8812665274084
 20
373.5010556455557
 30
0.0
 10
166.840115754187
 20
374.3509378640316
 30
0.0
 10
166.6722460566134
 20
376.0499581734666
 30
0.0
 10
166.5468466483329
 20
376.887727335721
 30
0.0
 10
166.050886070396
 20
379.367246362165
 30
0.0
 10
165.5617229952139
 20
380.9755074476449
 30
0.0
 10
164.7492439866726
 20
382.9298866275505
 30
0.0
 10
164.5763976423709
 20
383.3182193657244
 30
0.0
 10
164.2141958649985
 20
384.0808120291672
 30
0.0
 10
164.0244213339004
 20
384.4561465659644
 30
0.0
 10
163.4295483614563
 20
385.5646853133531
 30
0.0
 10
162.9989661042567
 20
386.2804674627894
 30
0.0
 10
162.0706594151645
 20
387.6666935469139
 30
0.0
 10
161.5729358460312
 20
388.3371368723624
 30
0.0
 10
160.509083384016
 20
389.6324608658136
 30
0.0
 10
159.9403755826803
 20
390.2594563766623
 30
0.0
 10
158.1638217788806
 20
392.0350002919483
 30
0.0
 10
156.8784513299711
 20
393.0906771678729
 30
0.0
 10
154.7971837571757
 20
394.4858606794714
 30
0.0
 10
154.076400311157
 20
394.9199862520571
 30
0.0
 10
152.586052451604
 20
395.7196085939136
 30
0.0
 10
151.8266016983982
 20
396.0798377124961
 30
0.0
 10
149.5061552560466
 20
397.0452892067911
 30
0.0
 10
147.9034638595861
 20
397.5364369735945
 30
0.0
 10
145.4115123728068
 20
398.0370146008447
 30
0.0
 10
144.563149619969
 20
398.1640265428815
 30
0.0
 10
142.876614276145
 20
398.3314760358769
 30
0.0
 10
142.0338422806895
 20
398.3731365068912
 30
0.0
 10
140.3492733677107
 20
398.3738472877646
 30
0.0
 10
139.5074764655405
 20
398.3328961841833
 30
0.0
 10
138.2455192829439
 20
398.2088283392351
 30
0.0
 10
137.8249901127976
 20
398.1570134907728
 30
0.0
 10
136.984181822875
 20
398.0321171089492
 30
0.0
 10
136.5627725729012
 20
397.9587744389466
 30
0.0
 10
134.478050783009
 20
397.542285926148
 30
0.0
 10
132.8708972642788
 20
397.0508110322762
 30
0.0
 10
130.5461053224703
 20
396.0850138911248
 30
0.0
 10
129.785602261653
 20
395.7246885857916
 30
0.0
 10
128.2938728077265
 20
394.9251336467649
 30
0.0
 10
127.5737159421324
 20
394.4917822664873
 30
0.0
 10
125.4910929978856
 20
393.0969650293061
 30
0.0
 10
124.2036787405974
 20
392.0406256024304
 30
0.0
 10
122.7198702768091
 20
390.5582143676268
 30
0.0
 10
122.4287048662239
 20
390.252719162243
 30
0.0
 10
121.8633571548945
 20
389.6295173568378
 30
0.0
 10
121.5893551616778
 20
389.3121109109185
 30
0.0
 10
120.7928374960208
 20
388.3427037833131
 30
0.0
 10
120.2957447626527
 20
387.6735577290279
 30
0.0
 10
119.368249119048
 20
386.2896692012933
 30
0.0
 10
118.9378465168199
 20
385.5749277000359
 30
0.0
 10
118.3429768949362
 20
384.467700261531
 30
0.0
 10
118.1531590222805
 20
384.0927611360711
 30
0.0
 10
117.7907931620143
 20
383.3308648316668
 30
0.0
 10
117.6177819055628
 20
382.9427490551604
 30
0.0
 10
116.8038472618017
 20
380.9878337539641
 30
0.0
 10
116.3145755226728
 20
379.3812265531895
 30
0.0
 10
115.8179985045531
 20
376.9078523943807
 30
0.0
 10
115.6923204684554
 20
376.0727456616564
 30
0.0
 10
115.5656049764216
 20
374.80350973133
 30
0.0
 10
115.5336522564592
 20
374.3763817805779
 30
0.0
 10
115.4912936824229
 20
373.5251314210636
 30
0.0
 10
115.4807751935783
 20
373.1006156708552
 30
0.0
 10
115.4804708570502
 20
370.9834800119035
 30
0.0
 10
115.646036441423
 20
369.3070448325561
 30
0.0
 10
116.1423428025234
 20
366.8180992088511
 30
0.0
 10
116.3510087650982
 20
365.9882312985076
 30
0.0
 10
116.8449120842816
 20
364.3683303038662
 30
0.0
 10
117.1299255202608
 20
363.5766585592286
 30
0.0
 10
117.7739227001572
 20
362.0285439256871
 30
0.0
 10
118.1329109042979
 20
361.2721037525592
 30
0.0
 10
118.7269937026123
 20
360.1636510360489
 30
0.0
 10
118.9343055527828
 20
359.7985425257735
 30
0.0
 10
119.3677335105751
 20
359.0771361708685
 30
0.0
 10
119.5944569642235
 20
358.719950955273
 30
0.0
 10
120.7681005230905
 20
356.9680481810344
 30
0.0
 10
121.8279327085146
 20
355.6812999685341
 30
0.0
 10
123.5945206682395
 20
353.9142430125703
 30
0.0
 10
124.2130906204006
 20
353.3526192302178
 30
0.0
 10
125.1870938048449
 20
352.552094515307
 30
0.0
 10
125.5201732378529
 20
352.2917826893512
 30
0.0
 10
126.1951154204065
 20
351.7905217972389
 30
0.0
 10
126.5376369498263
 20
351.5489782479655
 30
0.0
 10
128.2752414587832
 20
350.3858996415123
 30
0.0
 10
129.7445646548351
 20
349.5969016307643
 30
0.0
 10
131.6837890298398
 20
348.7888766503096
 30
0.0
 10
132.0768098284267
 20
348.6362695231039
 30
0.0
 10
132.8734902425735
 20
348.349446944615
 30
0.0
 10
133.2780350462376
 20
348.2150112038332
 30
0.0
 10
134.4945367998829
 20
347.8439969080898
 30
0.0
 10
135.3129093327441
 20
347.6381621539601
 30
0.0
 10
137.7898491654186
 20
347.1425724588755
 30
0.0
 10
139.4705496338084
 20
346.9734941850168
 30
0.0
 10
141.1807140607425
 20
346.9734941850168
 30
0.0
  0
LINE
  5
C3
330
1F
100
AcDbEntity
  8
0
  6
Continuous
 62
     7
370
    25
100
AcDbLine
 10
171.1807140607
 20
452.046033517
 30
0.0
 11
111.1807140607
 21
452.046033517
 31
0.0
  0
LINE
  5
C4
330
1F
100
AcDbEntity
  8
0
  6
Continuous
 62
     7
370
    25
100
AcDbLine
 10
111.1807140607
 20
293.3009548531
 30
0.0
 11
171.1807140607
 21
293.3009548531
 31
0.0
  0
LINE
  5
C5
330
1F
100
AcDbEntity
  8
0
  6
Continuous
 62
     7
370
    25
100
AcDbLine
 10
211.1807140607
 20
474.2067247962
 30
0.0
 11
71.1807140607
 21
474.2067247962
 31
0.0
  0
LINE
  5
C6
330
1F
100
AcDbEntity
  8
0
  6
Continuous
 62
     7
370
    25
100
AcDbLine
 10
71.1807140607
 20
474.2067247962
 30
0.0
 11
71.1807140607
 21
459.2067247962
 31
0.0
  0
LINE
  5
C7
330
1F
100
AcDbEntity
  8
0
  6
Continuous
 62
     7
370
    25
100
AcDbLine
 10
211.1807140607
 20
474.2067247962
 30
0.0
 11
211.1807140607
 21
459.2067247962
 31
0.0
  0
INSERT
  5
D3
330
1F
100
AcDbEntity
  8
FORMAT
100
AcDbBlockReference
  2
SW_CENTERMARKSYMBOL_0
 10
141.1807140607
 20
372.673494185
 30
0.0
  0
LINE
  5
D4
330
1F
100
AcDbEntity
  8
0
  6
Continuous
 62
     7
370
    25
100
AcDbLine
 10
-76.4599820529
 20
177.2384285714
 30
0.0
 11
-76.4599820529
 21
161.9563621261
 31
0.0
  0
LINE
  5
D5
330
1F
100
AcDbEntity
  8
0
  6
Continuous
 62
     7
370
    25
100
AcDbLine
 10
-62.4599820529
 20
161.9632575742
 30
0.0
 11
-62.4599820529
 21
177.2384285714
 31
0.0
  0
LINE
  5
D6
330
1F
100
AcDbEntity
  8
0
  6
Continuous
 62
     7
370
    25
100
AcDbLine
 10
-100.9599820529
 20
230.2384285714
 30
0.0
 11
-100.9599820529
 21
156.3355925169
 31
0.0
  0
LINE
  5
D7
330
1F
100
AcDbEntity
  8
0
  6
Continuous
 62
     7
370
    25
100
AcDbLine
 10
-37.9599820529
 20
156.3561998061
 30
0.0
 11
-37.9599820529
 21
230.2384285714
 31
0.0
  0
LINE
  5
D8
330
1F
100
AcDbEntity
  8
0
  6
Continuous
 62
     7
370
    25
100
AcDbLine
 10
-170.993212664
 20
66.2384285714
 30
0.0
 11
-155.993212664
 21
66.2384285714
 31
0.0
  0
LINE
  5
D9
330
1F
100
AcDbEntity
  8
0
  6
Continuous
 62
     7
370
    25
100
AcDbLine
 10
-170.993212664
 20
73.2384285714
 30
0.0
 11
-170.993212664
 21
66.2384285714
 31
0.0
  0
LINE
  5
DA
330
1F
100
AcDbEntity
  8
0
  6
Continuous
 62
     7
370
    25
100
AcDbLine
 10
-149.4349781454
 20
73.2384285714
 30
0.0
 11
-170.993212664
 21
73.2384285714
 31
0.0
  0
ARC
  5
DB
330
1F
100
AcDbEntity
  8
0
  6
Continuous
 62
     7
370
    25
100
AcDbCircle
 10
-69.4599820529
 20
75.2384285714
 30
0.0
 40
80.0
100
AcDbArc
 50
181.4325437376
 51
178.5674562624
  0
LINE
  5
DC
330
1F
100
AcDbEntity
  8
0
  6
Continuous
 62
     7
370
    25
100
AcDbLine
 10
-170.993212664
 20
77.2384285714
 30
0.0
 11
-149.4349781454
 21
77.2384285714
 31
0.0
  0
LINE
  5
DD
330
1F
100
AcDbEntity
  8
0
  6
Continuous
 62
     7
370
    25
100
AcDbLine
 10
-170.993212664
 20
84.2384285714
 30
0.0
 11
-170.993212664
 21
77.2384285714
 31
0.0
  0
LINE
  5
DE
330
1F
100
AcDbEntity
  8
0
  6
Continuous
 62
     7
370
    25
100
AcDbLine
 10
-155.993212664
 20
84.2384285714
 30
0.0
 11
-170.993212664
 21
84.2384285714
 31
0.0
  0
ARC
  5
DF
330
1F
100
AcDbEntity
  8
0
  6
Continuous
 62
     7
370
    25
100
AcDbCircle
 10
-69.4599820529
 20
75.2384285714
 30
0.0
 40
87.0
100
AcDbArc
 50
185.9377724516
 51
174.0622275484
  0
LINE
  5
E0
330
1F
100
AcDbEntity
  8
0
  6
Continuous
 62
     7
370
    25
100
AcDbLine
 10
-62.4599820529
 20
177.2384285714
 30
0.0
 11
-76.4599820529
 21
177.2384285714
 31
0.0
  0
LINE
  5
E1
330
1F
100
AcDbEntity
  8
0
  6
Continuous
 62
     7
370
    25
100
AcDbLine
 10
-100.9599820529
 20
230.2384285714
 30
0.0
 11
-37.9599820529
 21
230.2384285714
 31
0.0
  0
LINE
  5
E2
330
1F
100
AcDbEntity
  8
0
  6
Continuous
 62
     7
370
    25
100
AcDbLine
 10
211.1807140607
 20
-65.0755205097
 30
0.0
 11
71.1807140607
 21
-65.0755205097
 31
0.0
  0
CIRCLE
  5
E3
330
1F
100
AcDbEntity
  8
0
  6
Continuous
 62
     7
370
    25
100
AcDbCircle
 10
141.1807140607
 20
-152.0755205097
 30
0.0
 40
25.69999999999999
  0
CIRCLE
  5
E4
330
1F
100
AcDbEntity
  8
0
  6
Continuous
 62
     7
370
    25
100
AcDbCircle
 10
141.1807140607
 20
-152.0755205097
 30
0.0
 40
31.5
  0
CIRCLE
  5
E5
330
1F
100
AcDbEntity
  8
0
  6
Continuous
 62
     7
370
    25
100
AcDbCircle
 10
81.1807140607
 20
-152.0755205097
 30
0.0
 40
4.599999999999966
  0
CIRCLE
  5
E6
330
1F
100
AcDbEntity
  8
0
  6
Continuous
 62
     7
370
    25
100
AcDbCircle
 10
81.1807140607
 20
-152.0755205097
 30
0.0
 40
6.999999999999972
  0
CIRCLE
  5
E7
330
1F
100
AcDbEntity
  8
0
  6
Continuous
 62
     7
370
    25
100
AcDbCircle
 10
201.1807140607
 20
-152.0755205097
 30
0.0
 40
4.599999999999966
  0
CIRCLE
  5
E8
330
1F
100
AcDbEntity
  8
0
  6
Continuous
 62
     7
370
    25
100
AcDbCircle
 10
201.1807140607
 20
-152.0755205097
 30
0.0
 40
6.999999999999972
  0
CIRCLE
  5
E9
330
1F
100
AcDbEntity
  8
0
  6
Continuous
 62
     7
370
    25
100
AcDbCircle
 10
81.1807140607
 20
-152.0755205097
 30
0.0
 40
1.5
  0
CIRCLE
  5
EA
330
1F
100
AcDbEntity
  8
0
  6
Continuous
 62
     7
370
    25
100
AcDbCircle
 10
81.1807140607
 20
-152.0755205097
 30
0.0
 40
2.0
  0
CIRCLE
  5
EB
330
1F
100
AcDbEntity
  8
0
  6
Continuous
 62
     7
370
    25
100
AcDbCircle
 10
201.1807140607
 20
-152.0755205097
 30
0.0
 40
1.5
  0
CIRCLE
  5
EC
330
1F
100
AcDbEntity
  8
0
  6
Continuous
 62
     7
370
    25
100
AcDbCircle
 10
201.1807140607
 20
-152.0755205097
 30
0.0
 40
2.0
  0
LINE
  5
ED
330
1F
100
AcDbEntity
  8
0
  6
Continuous
 62
     7
370
    25
100
AcDbLine
 10
211.1807140607
 20
-65.0755205097
 30
0.0
 11
211.1807140607
 21
-238.6087511208
 31
0.0
  0
LINE
  5
EE
330
1F
100
AcDbEntity
  8
0
  6
Continuous
 62
     7
370
    25
100
AcDbLine
 10
211.1807140607
 20
-238.6087511208
 30
0.0
 11
71.1807140607
 21
-238.6087511208
 31
0.0
  0
LINE
  5
EF
330
1F
100
AcDbEntity
  8
0
  6
Continuous
 62
     7
370
    25
100
AcDbLine
 10
71.1807140607
 20
-65.0755205097
 30
0.0
 11
71.1807140607
 21
-238.6087511208
 31
0.0
  0
LINE
  5
F0
330
1F
100
AcDbEntity
  8
0
  6
Continuous
 62
     7
370
    25
100
AcDbLine
 10
211.1807140607
 20
-253.6087511208
 30
0.0
 11
71.1807140607
 21
-253.6087511208
 31
0.0
  0
LINE
  5
F1
330
1F
100
AcDbEntity
  8
0
  6
Continuous
 62
     7
370
    25
100
AcDbLine
 10
71.1807140607
 20
-238.6087511208
 30
0.0
 11
71.1807140607
 21
-253.6087511208
 31
0.0
  0
LINE
  5
F2
330
1F
100
AcDbEntity
  8
0
  6
Continuous
 62
     7
370
    25
100
AcDbLine
 10
211.1807140607
 20
-238.6087511208
 30
0.0
 11
211.1807140607
 21
-253.6087511208
 31
0.0
  0
INSERT
  5
FE
330
1F
100
AcDbEntity
  8
FORMAT
100
AcDbBlockReference
  2
SW_CENTERMARKSYMBOL_1
 10
141.1807140607
 20
-152.0755205097
 30
0.0
  0
INSERT
  5
10A
330
1F
100
AcDbEntity
  8
FORMAT
100
AcDbBlockReference
  2
SW_CENTERMARKSYMBOL_2
 10
81.1807140607
 20
-152.0755205097
 30
0.0
  0
INSERT
  5
116
330
1F
100
AcDbEntity
  8
FORMAT
100
AcDbBlockReference
  2
SW_CENTERMARKSYMBOL_3
 10
201.1807140607
 20
-152.0755205097
 30
0.0
  0
LINE
  5
117
330
1F
100
AcDbEntity
  8
0
  6
Continuous
 62
     7
370
    25
100
AcDbLine
 10
465.484832973
 20
-236.2785298132
 30
0.0
 11
493.7691042205
 21
-219.9503675767
 31
0.0
  0
LINE
  5
118
330
1F
100
AcDbEntity
  8
0
  6
Continuous
 62
     7
370
    25
100
AcDbLine
 10
394.7741548544
 20
-277.0989354043
 30
0.0
 11
423.0584261018
 21
-260.7707731678
 31
0.0
  0
LINE
  5
119
330
1F
100
AcDbEntity
  8
0
  6
Continuous
 62
     7
370
    25
100
AcDbLine
 10
406.7761744811
 20
-69.2578655225
 30
0.0
 11
307.781225115
 21
-126.40643335
 31
0.0
  0
LINE
  5
11A
330
1F
100
AcDbEntity
  8
0
  6
Continuous
 62
     7
370
    25
100
AcDbLine
 10
436.2015715389
 20
-65.3989942963
 30
0.0
 11
436.2015715389
 21
-67.3252607561
 31
0.0
  0
LINE
  5
11B
330
1F
100
AcDbEntity
  8
0
  6
Continuous
 62
     7
370
    25
100
AcDbLine
 10
450.2015715389
 20
-73.5240867439
 30
0.0
 11
450.2015715389
 21
-65.3989942963
 31
0.0
  0
LINE
  5
11C
330
1F
100
AcDbEntity
  8
0
  6
Continuous
 62
     7
370
    25
100
AcDbLine
 10
369.2751646678
 20
-46.6145746211
 30
0.0
 11
369.2751646678
 21
-90.9067376785
 31
0.0
  0
LINE
  5
11D
330
1F
100
AcDbEntity
  8
0
  6
Continuous
 62
     7
370
    25
100
AcDbLine
 10
432.2751646678
 20
-66.2833928559
 30
0.0
 11
432.2751646678
 21
-46.6145746211
 31
0.0
  0
LINE
  5
11E
330
1F
100
AcDbEntity
  8
0
  6
Continuous
 62
     7
370
    25
100
AcDbLine
 10
378.4778034699
 20
-110.5067073113
 30
0.0
 11
389.0844051877
 21
-116.62976815
 31
0.0
  0
LINE
  5
11F
330
1F
100
AcDbEntity
  8
0
  6
Continuous
 62
     7
370
    25
100
AcDbLine
 10
378.4778034699
 20
-104.7909216281
 30
0.0
 11
378.4778034699
 21
-110.5067073113
 31
0.0
  0
LINE
  5
120
330
1F
100
AcDbEntity
  8
0
  6
Continuous
 62
     7
370
    25
100
AcDbLine
 10
393.7217772884
 20
-113.5910803969
 30
0.0
 11
378.4778034699
 21
-104.7909216281
 31
0.0
  0
LWPOLYLINE
  5
121
330
1F
100
AcDbEntity
  8
0
  6
Continuous
 62
     7
370
    25
100
AcDbPolyline
 90
      117
 70
   128
 43
0.0
 10
393.7217772884
 20
-110.3249171493
 10
393.8793546801
 20
-106.9109265578
 10
394.1997215245
 20
-103.6057442012
 10
394.6819530246
 20
-100.4189110884
 10
395.3246571315
 20
-97.3596265917
 10
396.1259785634
 20
-94.4367218911
 10
397.0836041603
 20
-91.6586344816
 10
398.1947695621
 20
-89.0333838168
 10
399.4562671883
 20
-86.5685481592
 10
400.864455497
 20
-84.2712427043
 10
402.4152694969
 20
-82.1480990415
 10
404.104232482
 20
-80.2052460102
 10
405.926468954
 20
-78.4482920085
 10
407.8767186966
 20
-76.8823088029
 10
409.9493519598
 20
-75.5118168882
 10
412.1383857117
 20
-74.3407724381
 10
414.4375009087
 20
-73.3725558851
 10
416.8400607377
 20
-72.6099621619
 10
419.3391297736
 20
-72.0551926337
 10
421.9274939999
 20
-71.7098487435
 10
424.5976816335
 20
-71.5749273891
 10
427.341984693
 20
-71.6508180454
 10
430.1524812496
 20
-71.9373016404
 10
433.0210582948
 20
-72.4335511872
 10
435.9394351602
 20
-73.1381341713
 10
438.8991874212
 20
-74.049016686
 10
441.8917712158
 20
-75.1635693036
 10
444.9085479076
 20
-76.4785746658
 10
447.9408090229
 20
-77.9902367707
 10
450.9798013898
 20
-79.6941919315
 10
454.0167524051
 20
-81.585521372
 10
457.0428953585
 20
-83.6587654267
 10
460.0494947389
 20
-85.9079393003
 10
463.0278714516
 20
-88.326550344
 10
465.9694278715
 20
-90.9076167981
 10
468.865672662
 20
-93.6436879457
 10
471.7082452868
 20
-96.5268656208
 10
474.4889401442
 20
-99.5488270077
 10
477.1997302535
 20
-102.7008486663
 10
479.8327904271
 20
-105.973831714
 10
482.3805198589
 20
-109.358328091
 10
484.8355640654
 20
-112.8445678342
 10
487.1908361158
 20
-116.4224872798
 10
489.4395370899
 20
-120.0817581138
 10
491.575175704
 20
-123.8118171868
 10
493.5915870498
 20
-127.6018970061
 10
495.4829503897
 20
-131.4410568183
 10
497.2438059602
 20
-135.3182141918
 10
498.8690707321
 20
-139.2221770081
 10
500.3540530836
 20
-143.1416757697
 10
501.6944663435
 20
-147.0653961322
 10
502.8864411658
 20
-150.9820115643
 10
503.9265366986
 20
-154.8802160448
 10
504.8117505175
 20
-158.7487566987
 10
505.539527292
 20
-162.5764662814
 10
506.1077661624
 20
-166.3522954142
 10
506.5148268041
 20
-170.0653444809
 10
506.7595341626
 20
-173.7048950915
 10
506.8411818457
 20
-177.2604410225
 10
506.7595341626
 20
-180.7217185451
 10
506.5148268041
 20
-184.0787360534
 10
506.1077661624
 20
-187.3218029072
 10
505.539527292
 20
-190.4415574051
 10
504.8117505175
 20
-193.4289938096
 10
503.9265366986
 20
-196.2754883431
 10
502.8864411658
 20
-198.9728240826
 10
501.6944663435
 20
-201.5132146788
 10
500.3540530836
 20
-203.889326833
 10
498.8690707321
 20
-206.0943014664
 10
497.2438059602
 20
-208.1217735192
 10
495.4829503897
 20
-209.9658903255
 10
493.5915870498
 20
-211.6213285073
 10
491.575175704
 20
-213.0833093417
 10
489.4395370899
 20
-214.3476125559
 10
487.1908361158
 20
-215.4105885089
 10
484.8355640654
 20
-216.2691687279
 10
482.3805198589
 20
-216.920874765
 10
479.8327904271
 20
-217.3638253527
 10
477.1997302535
 20
-217.5967418335
 10
474.4889401442
 20
-217.6189518518
 10
471.7082452868
 20
-217.4303912943
 10
468.865672662
 20
-217.0316044754
 10
465.9694278715
 20
-216.4237425654
 10
463.0278714516
 20
-215.6085602683
 10
460.0494947389
 20
-214.5884107557
 10
457.0428953585
 20
-213.3662388742
 10
454.0167524051
 20
-211.945572645
 10
450.9798013898
 20
-210.3305130789
 10
447.9408090229
 20
-208.5257223385
 10
444.9085479076
 20
-206.53641028
 10
441.8917712158
 20
-204.3683194136
 10
438.8991874212
 20
-202.0277083273
 10
435.9394351602
 20
-199.5213336198
 10
433.0210582948
 20
-196.8564303966
 10
430.1524812496
 20
-194.0406913846
 10
427.341984693
 20
-191.0822447257
 10
424.5976816335
 20
-187.989630513
 10
421.9274939999
 20
-184.771776139
 10
419.3391297736
 20
-181.4379705242
 10
416.8400607377
 20
-177.997837304
 10
414.4375009087
 20
-174.4613070471
 10
412.1383857117
 20
-170.8385885901
 10
409.9493519598
 20
-167.1401395676
 10
407.8767186966
 20
-163.3766362238
 10
405.926468954
 20
-159.5589425944
 10
404.104232482
 20
-155.698079145
 10
402.4152694969
 20
-151.8051909589
 10
400.864455497
 20
-147.8915155643
 10
399.4562671883
 20
-143.9683504957
 10
398.1947695621
 20
-140.0470206812
 10
397.0836041603
 20
-136.1388457512
 10
396.1259785634
 20
-132.2551073619
 10
395.3246571315
 20
-128.4070166292
 10
394.6819530246
 20
-124.6056817656
 10
394.1997215245
 20
-120.8620760141
 10
393.8793546801
 20
-117.1870059723
 10
393.7217772884
 20
-113.5910803969
  0
LINE
  5
122
330
1F
100
AcDbEntity
  8
0
  6
Continuous
 62
     7
370
    25
100
AcDbLine
 10
378.4778034699
 20
-101.5247583806
 30
0.0
 11
393.7217772884
 21
-110.3249171493
 31
0.0
  0
LINE
  5
123
330
1F
100
AcDbEntity
  8
0
  6
Continuous
 62
     7
370
    25
100
AcDbLine
 10
378.4778034699
 20
-95.8089726974
 30
0.0
 11
378.4778034699
 21
-101.5247583806
 31
0.0
  0
LINE
  5
124
330
1F
100
AcDbEntity
  8
0
  6
Continuous
 62
     7
370
    25
100
AcDbLine
 10
389.0844051877
 20
-101.932033536
 30
0.0
 11
378.4778034699
 21
-95.8089726974
 31
0.0
  0
LWPOLYLINE
  5
125
330
1F
100
AcDbEntity
  8
0
  6
Continuous
 62
     7
370
    25
100
AcDbPolyline
 90
      119
 70
   128
 43
0.0
 10
389.0844051877
 20
-116.62976815
 10
389.4930424771
 20
-120.4925567384
 10
390.0627894504
 20
-124.419258317
 10
390.7921358677
 20
-128.3994642999
 10
391.6791484363
 20
-132.4226242762
 10
392.7214759341
 20
-136.4780739758
 10
393.9163554431
 20
-140.5550635378
 10
395.2606196724
 20
-144.6427860049
 10
396.7507053541
 20
-148.7304059702
 10
398.3826626886
 20
-152.8070882981
 10
400.1521658141
 20
-156.8620268461
 10
402.0545242736
 20
-160.8844731079
 10
404.0846954478
 20
-164.8637647055
 10
406.2372979216
 20
-168.7893536516
 10
408.5066257489
 20
-172.6508343097
 10
410.8866635775
 20
-176.4379709764
 10
413.3711025937
 20
-180.1407250133
 10
415.9533572459
 20
-183.7492814568
 10
418.6265827003
 20
-187.2540750347
 10
421.3836929852
 20
-190.6458155212
 10
424.2173797735
 20
-193.9155123624
 10
427.1201317556
 20
-197.054498508
 10
430.0842545491
 20
-200.0544533851
 10
433.1018910949
 20
-202.9074249537
 10
436.1650424839
 20
-205.6058507856
 10
439.2655891599
 20
-208.1425781098
 10
442.3953124423
 20
-210.5108827729
 10
445.5459163116
 20
-212.7044870626
 10
448.7090493993
 20
-214.7175763485
 10
451.876327126
 20
-216.5448144949
 10
455.0393539257
 20
-218.1813580055
 10
458.1897455005
 20
-219.6228688617
 10
461.3191510448
 20
-220.8655260223
 10
464.4192753814
 20
-221.9060355511
 10
467.481900949
 20
-222.7416393489
 10
470.4989095854
 20
-223.3701224642
 10
473.4623040457
 20
-223.7898189643
 10
476.3642292017
 20
-223.9996163513
 10
479.1969928625
 20
-223.9989585112
 10
481.9530861654
 20
-223.7878471877
 10
484.6252034792
 20
-223.3668419777
 10
487.2062617693
 20
-222.7370588482
 10
489.6894193735
 20
-221.9001671777
 10
492.0680941366
 20
-220.8583853317
 10
494.3359808581
 20
-219.614474782
 10
496.4870680056
 20
-218.1717327869
 10
498.5156536499
 20
-216.5339836512
 10
500.4163605787
 20
-214.7055685892
 10
502.1841505504
 20
-212.6913342169
 10
503.814337649
 20
-210.4966197053
 10
505.3026007052
 20
-208.1272426278
 10
506.6449947507
 20
-205.5894835392
 10
507.8379614748
 20
-202.8900693279
 10
508.878338657
 20
-200.0361553847
 10
509.7633685489
 20
-197.035306636
 10
510.4907051841
 20
-193.8954774911
 10
511.058420597
 20
-190.6249907573
 10
511.4650099331
 20
-187.2325155789
 10
511.7093954379
 20
-183.7270444572
 10
511.790929314
 20
-180.1178694139
 10
511.7093954379
 20
-176.414557361
 10
511.4650099331
 20
-172.6269247413
 10
511.058420597
 20
-168.7650115077
 10
510.4907051841
 20
-164.8390545103
 10
509.7633685489
 20
-160.8594603612
 10
508.878338657
 20
-156.8367778497
 10
507.8379614748
 20
-152.7816699801
 10
506.6449947507
 20
-148.7048857072
 10
505.3026007052
 20
-144.6172314442
 10
503.814337649
 20
-140.5295424173
 10
502.1841505504
 20
-136.4526539449
 10
500.4163605787
 20
-132.3973727162
 10
498.5156536499
 20
-128.3744481456
 10
496.4870680056
 20
-124.3945438793
 10
494.3359808581
 20
-120.4682095283
 10
492.0680941366
 20
-116.6058527051
 10
489.6894193735
 20
-112.8177114356
 10
487.2062617693
 20
-109.113827021
 10
484.6252034792
 20
-105.5040174213
 10
481.9530861654
 20
-101.9978512304
 10
479.1969928625
 20
-98.6046223126
 10
476.3642292017
 20
-95.3333251672
 10
473.4623040457
 20
-92.1926310864
 10
470.4989095854
 20
-89.1908651704
 10
467.481900949
 20
-86.3359842596
 10
464.4192753814
 20
-83.6355558436
 10
461.3191510448
 20
-81.0967380016
 10
458.1897455005
 20
-78.7262604284
 10
455.0393539257
 20
-76.5304065959
 10
451.876327126
 20
-74.5149970975
 10
448.7090493993
 20
-72.6853742192
 10
445.5459163116
 20
-71.0463877786
 10
442.3953124423
 20
-69.6023822696
 10
439.2655891599
 20
-68.3571853463
 10
436.1650424839
 20
-67.3140976769
 10
433.1018910949
 20
-66.4758841945
 10
430.0842545491
 20
-65.8447667684
 10
427.1201317556
 20
-65.4224183139
 10
424.2173797735
 20
-65.2099583584
 10
421.3836929852
 20
-65.207950074
 10
418.6265827003
 20
-65.4163987838
 10
415.9533572459
 20
-65.8347519488
 10
413.3711025937
 20
-66.461900632
 10
410.8866635775
 20
-67.2961824379
 10
408.5066257489
 20
-68.3353859191
 10
406.2372979216
 20
-69.5767564384
 10
404.0846954478
 20
-71.0170034702
 10
402.0545242736
 20
-72.6523093232
 10
400.1521658141
 20
-74.4783392598
 10
398.3826626886
 20
-76.490252986
 10
396.7507053541
 20
-78.6827174823
 10
395.2606196724
 20
-81.0499211395
 10
393.9163554431
 20
-83.585589164
 10
392.7214759341
 20
-86.28300021
 10
391.6791484363
 20
-89.1350041966
 10
390.7921358677
 20
-92.1340412604
 10
390.0627894504
 20
-95.2721617941
 10
389.4930424771
 20
-98.5410475194
 10
389.0844051877
 20
-101.932033536
  0
LINE
  5
126
330
1F
100
AcDbEntity
  8
0
  6
Continuous
 62
     7
370
    25
100
AcDbLine
 10
389.0844051877
 20
-116.62976815
 30
0.0
 11
290.0894558216
 21
-173.7783359776
 31
0.0
  0
LWPOLYLINE
  5
127
330
1F
100
AcDbEntity
  8
0
  6
Continuous
 62
     7
370
    25
100
AcDbPolyline
 90
       45
 70
   128
 43
0.0
 10
290.0894558216
 20
-173.7783359776
 10
290.498093111
 20
-177.641124566
 10
291.0678400842
 20
-181.5678261446
 10
291.7971865016
 20
-185.5480321275
 10
292.6841990702
 20
-189.5711921038
 10
293.726526568
 20
-193.6266418034
 10
294.921406077
 20
-197.7036313654
 10
296.2656703063
 20
-201.7913538325
 10
297.755755988
 20
-205.8789737978
 10
299.3877133225
 20
-209.9556561257
 10
301.157216448
 20
-214.0105946737
 10
303.0595749075
 20
-218.0330409355
 10
305.0897460817
 20
-222.0123325331
 10
307.2423485555
 20
-225.9379214792
 10
309.5116763828
 20
-229.7994021373
 10
311.8917142114
 20
-233.586538804
 10
314.3761532276
 20
-237.2892928409
 10
316.9584078798
 20
-240.8978492844
 10
319.6316333342
 20
-244.4026428623
 10
322.388743619
 20
-247.7943833488
 10
325.2224304074
 20
-251.06408019
 10
328.1251823895
 20
-254.2030663356
 10
331.089305183
 20
-257.2030212127
 10
334.1069417288
 20
-260.0559927813
 10
337.1700931178
 20
-262.7544186132
 10
340.2706397938
 20
-265.2911459374
 10
343.4003630762
 20
-267.6594506005
 10
346.5509669454
 20
-269.8530548902
 10
349.7141000332
 20
-271.8661441761
 10
352.8813777599
 20
-273.6933823225
 10
356.0444045596
 20
-275.3299258331
 10
359.1947961344
 20
-276.7714366893
 10
362.3242016787
 20
-278.0140938499
 10
365.4243260152
 20
-279.0546033787
 10
368.4869515829
 20
-279.8902071765
 10
371.5039602192
 20
-280.5186902918
 10
374.4673546796
 20
-280.9383867919
 10
377.3692798356
 20
-281.1481841789
 10
380.2020434964
 20
-281.1475263388
 10
382.9581367993
 20
-280.9364150153
 10
385.630254113
 20
-280.5154098053
 10
388.2113124032
 20
-279.8856266758
 10
390.6944700074
 20
-279.0487350053
 10
393.0731447704
 20
-278.0069531593
 10
394.7741548544
 20
-277.0989354043
  0
ARC
  5
128
330
1F
100
AcDbEntity
  8
0
  6
Continuous
 62
     7
370
    25
100
AcDbCircle
 10
325.6506050179
 20
-155.5671354844
 30
0.0
 40
34.20031121318318
100
AcDbArc
 50
121.4995409778
 51
162.1816255867
  0
LINE
  5
129
330
1F
100
AcDbEntity
  8
0
  6
Continuous
 62
     7
370
    25
100
AcDbLine
 10
318.4514056791
 20
-158.3115574601
 30
0.0
 11
360.8778125503
 21
-133.8193141054
 31
0.0
  0
LWPOLYLINE
  5
12A
330
1F
100
AcDbEntity
  8
0
  6
Continuous
 62
     7
370
    25
100
AcDbPolyline
 90
       54
 70
   128
 43
0.0
 10
438.7500077576
 20
-238.9598856654
 10
437.8962513792
 20
-241.6583215465
 10
436.802369075
 20
-244.4966592412
 10
435.5538287482
 20
-247.1753897587
 10
434.1540038334
 20
-249.6872754294
 10
432.6066765217
 20
-252.025529382
 10
430.9160275412
 20
-254.1838338817
 10
429.0866248612
 20
-256.1563573991
 10
427.1234113501
 20
-257.9377703674
 10
425.03169142
 20
-259.5232595817
 10
422.8171166952
 20
-260.9085412042
 10
420.4856707414
 20
-262.0898723384
 10
418.0436528992
 20
-263.0640611424
 10
415.4976612636
 20
-263.8284754526
 10
412.8545748566
 20
-264.3810498959
 10
410.1215350412
 20
-264.7202914696
 10
407.3059262253
 20
-264.8452835761
 10
404.4153559107
 20
-264.7556884988
 10
401.4576341374
 20
-264.4517483149
 10
398.4407523826
 20
-263.9342842413
 10
395.3728619676
 20
-263.2046944157
 10
392.2622520344
 20
-262.2649501188
 10
389.117327149
 20
-261.1175904485
 10
385.946584593
 20
-259.7657154592
 10
382.7585914047
 20
-258.2129777858
 10
379.5619612322
 20
-256.4635727748
 10
376.3653310596
 20
-254.5222271485
 10
373.1773378713
 20
-252.3941862342
 10
370.0065953153
 20
-250.0851997919
 10
366.8616704299
 20
-247.6015064786
 10
363.7510604967
 20
-244.9498169925
 10
360.6831700818
 20
-242.137295941
 10
357.6662883269
 20
-239.1715424829
 10
354.7085665537
 20
-236.0605697958
 10
351.817996239
 20
-232.8127834259
 10
349.0023874232
 20
-229.4369585766
 10
346.2693476077
 20
-225.9422163986
 10
343.6262612008
 20
-222.337999346
 10
341.0802695651
 20
-218.6340456631
 10
338.6382517229
 20
-214.8403630731
 10
336.3068057691
 20
-210.9672017379
 10
334.0922310443
 20
-207.0250265631
 10
332.0005111143
 20
-203.0244889234
 10
330.0372976031
 20
-198.9763978827
 10
328.2078949231
 20
-194.89169099
 10
326.5172459426
 20
-190.7814047266
 10
324.9699186309
 20
-186.6566446867
 10
323.5700937162
 20
-182.5285555713
 10
322.3215533893
 20
-178.4082910763
 10
321.2276710851
 20
-174.3069837563
 10
320.2914023672
 20
-170.2357149451
 10
319.5152769429
 20
-166.2054848159
 10
318.9013918275
 20
-162.2271826588
 10
318.4514056791
 20
-158.3115574601
  0
LINE
  5
12B
330
1F
100
AcDbEntity
  8
0
  6
Continuous
 62
     7
370
    25
100
AcDbLine
 10
477.0035579331
 20
-207.8948394371
 30
0.0
 11
463.4291406087
 21
-215.7311837572
 31
0.0
  0
LWPOLYLINE
  5
12C
330
1F
100
AcDbEntity
  8
0
  6
Continuous
 62
     7
370
    25
100
AcDbPolyline
 90
       45
 70
   128
 43
0.0
 10
360.8778125503
 20
-133.8193141054
 10
361.3277986987
 20
-137.7349393042
 10
361.9416838141
 20
-141.7132414612
 10
362.7178092384
 20
-145.7434715905
 10
363.6540779563
 20
-149.8147404016
 10
364.7479602605
 20
-153.9160477216
 10
365.9965005874
 20
-158.0363122166
 10
367.3963255021
 20
-162.164401332
 10
368.9436528138
 20
-166.2891613719
 10
370.6343017943
 20
-170.3994476353
 10
372.4637044743
 20
-174.484154528
 10
374.4269179854
 20
-178.5322455687
 10
376.5186379155
 20
-182.5327832084
 10
378.7332126403
 20
-186.4749583832
 10
381.0646585941
 20
-190.3481197184
 10
383.5066764363
 20
-194.1418023084
 10
386.052668072
 20
-197.8457559913
 10
388.6957544789
 20
-201.449973044
 10
391.4287942944
 20
-204.9447152219
 10
394.2444031102
 20
-208.3205400713
 10
397.1349734249
 20
-211.5683264411
 10
400.0926951981
 20
-214.6792991282
 10
403.109576953
 20
-217.6450525863
 10
406.1774673679
 20
-220.4575736378
 10
409.2880773011
 20
-223.1092631239
 10
412.4330021865
 20
-225.5929564372
 10
415.6037447425
 20
-227.9019428795
 10
418.7917379308
 20
-230.0299837938
 10
421.9883681034
 20
-231.9713294201
 10
425.1849982759
 20
-233.7207344312
 10
428.3729914642
 20
-235.2734721045
 10
431.5437340202
 20
-236.6253470938
 10
434.6886589056
 20
-237.7727067641
 10
437.7992688388
 20
-238.712451061
 10
440.8671592538
 20
-239.4420408867
 10
443.8840410086
 20
-239.9595049603
 10
446.8417627818
 20
-240.2634451441
 10
449.7323330965
 20
-240.3530402214
 10
452.5479419124
 20
-240.2280481149
 10
455.2809817278
 20
-239.8888065412
 10
457.9240681348
 20
-239.336232098
 10
460.4700597704
 20
-238.5718177877
 10
462.9120776126
 20
-237.5976289838
 10
465.2435235664
 20
-236.4162978495
 10
465.484832973
 20
-236.2785298132
  0
SPLINE
  5
12D
330
1F
100
AcDbEntity
  8
0
  6
Continuous
 62
     7
370
    25
100
AcDbSpline
210
0.0
220
0.0
230
1.0
 70
     8
 71
     3
 72
    23
 73
    19
 74
     0
 42
0.00000001
 43
0.00000001
 40
0.0
 40
0.0
 40
0.0
 40
0.0
 40
0.0637588209559692
 40
0.1275277084345426
 40
0.1911822339276415
 40
0.2548498436336179
 40
0.3206211261426087
 40
0.3863897202926017
 40
0.4537442733429614
 40
0.5210821717237013
 40
0.5862255333156979
 40
0.6513644540516101
 40
0.714120487618572
 40
0.7768873407139696
 40
0.8404478976560973
 40
0.9040185985094222
 40
0.9703920723726626
 40
1.0
 40
1.0
 40
1.0
 40
1.0
 10
418.9478089442511
 20
-121.8084770890951
 30
0.0
 10
419.8915836937831
 20
-121.1887884759032
 30
0.0
 10
421.7792822001485
 20
-119.9493134103601
 30
0.0
 10
423.9202210437952
 20
-117.5660201210578
 30
0.0
 10
425.4626077382436
 20
-114.8992760916692
 30
0.0
 10
426.3656738214538
 20
-111.9962232984493
 30
0.0
 10
426.5767635609024
 20
-108.9685005002082
 30
0.0
 10
426.083717831005
 20
-105.9105836481145
 30
0.0
 10
424.8453603925176
 20
-102.9884195335831
 30
0.0
 10
422.9174588765383
 20
-100.3486050481615
 30
0.0
 10
420.3560498447362
 20
-98.13445973875471
 30
0.0
 10
417.3221588614733
 20
-96.40982574533113
 30
0.0
 10
413.8796355359602
 20
-95.20827750977145
 30
0.0
 10
410.1468978115324
 20
-94.49702097473845
 30
0.0
 10
406.165267665349
 20
-94.2747014949971
 30
0.0
 10
401.989828572101
 20
-94.52034875671838
 30
0.0
 10
398.4991574457933
 20
-95.01892300036447
 30
0.0
 10
396.4631413317891
 20
-95.54438690600749
 30
0.0
 10
395.8350798863908
 20
-95.70647973907143
 30
0.0
  0
SPLINE
  5
12E
330
1F
100
AcDbEntity
  8
0
  6
Continuous
 62
     7
370
    25
100
AcDbSpline
210
0.0
220
0.0
230
1.0
 70
     8
 71
     3
 72
    14
 73
    10
 74
     0
 42
0.00000001
 43
0.00000001
 40
0.0
 40
0.0
 40
0.0
 40
0.0
 40
0.0375344808403428
 40
0.197963337391746
 40
0.3583999956601024
 40
0.5245562890470915
 40
0.6906727693415287
 40
0.8453478156481327
 40
1.0
 40
1.0
 40
1.0
 40
1.0
 10
394.5202290790336
 20
-123.1118237987859
 30
0.0
 10
394.8366619150866
 20
-123.2048244261859
 30
0.0
 10
396.5055833676528
 20
-123.6953258043173
 30
0.0
 10
399.6754099457194
 20
-124.2841364161387
 30
0.0
 10
403.9559557608368
 20
-124.7921875577169
 30
0.0
 10
408.2222585713878
 20
-124.8162845398616
 30
0.0
 10
412.2346123765024
 20
-124.3320894225754
 30
0.0
 10
415.8851989056292
 20
-123.3597911092576
 30
0.0
 10
417.9269892333588
 20
-122.325556282853
 30
0.0
 10
418.9478089442511
 20
-121.8084770890951
 30
0.0
  0
LINE
  5
12F
330
1F
100
AcDbEntity
  8
0
  6
Continuous
 62
     7
370
    25
100
AcDbLine
 10
393.7217772884
 20
-110.3249171493
 30
0.0
 11
390.8928904274
 21
-111.9579987731
 31
0.0
  0
LWPOLYLINE
  5
130
330
1F
100
AcDbEntity
  8
0
  6
Continuous
 62
     7
370
    25
100
AcDbPolyline
 90
        3
 70
   128
 43
0.0
 10
358.3578795715
 20
-141.0304010818
 10
361.0545453728
 20
-143.0565071279
 10
362.3856200345
 20
-144.1136429924
  0
LWPOLYLINE
  5
131
330
1F
100
AcDbEntity
  8
0
  6
Continuous
 62
     7
370
    25
100
AcDbPolyline
 90
       13
 70
   128
 43
0.0
 10
406.7467271825
 20
-220.9576606621
 10
407.1128167963
 20
-223.5008632417
 10
407.519877438
 20
-227.2139123085
 10
407.7645847965
 20
-230.8534629191
 10
407.8462324796
 20
-234.4090088501
 10
407.7645847965
 20
-237.8702863727
 10
407.519877438
 20
-241.227303881
 10
407.1128167963
 20
-244.4703707348
 10
406.5445779259
 20
-247.5901252327
 10
405.8168011513
 20
-250.5775616372
 10
404.9315873325
 20
-253.4240561707
 10
403.8914917996
 20
-256.1213919102
 10
402.8337929961
 20
-258.3985179764
  0
LINE
  5
132
330
1F
100
AcDbEntity
  8
0
  6
Continuous
 62
     7
370
    25
100
AcDbLine
 10
361.5353061257
 20
-139.196111776
 30
0.0
 11
323.4371004306
 21
-161.1897377763
 31
0.0
  0
ARC
  5
133
330
1F
100
AcDbEntity
  8
0
  6
Continuous
 62
     7
370
    25
100
AcDbCircle
 10
430.745948259
 20
-196.7289241142
 30
0.0
 40
47.6067454275106
100
AcDbArc
 50
334.0270928007
 51
354.2508131829
  0
LINE
  5
134
330
1F
100
AcDbEntity
  8
0
  6
Continuous
 62
     7
370
    25
100
AcDbLine
 10
457.334585201
 20
-213.4931350723
 30
0.0
 11
478.113228905
 21
-201.4978793882
 31
0.0
  0
LWPOLYLINE
  5
135
330
1F
100
AcDbEntity
  8
0
  6
Continuous
 62
     7
370
    25
100
AcDbPolyline
 90
       51
 70
   128
 43
0.0
 10
323.4371004306
 20
-161.1897377763
 10
323.9060799711
 20
-164.9817521224
 10
324.5406094015
 20
-168.8345740283
 10
325.3388012971
 20
-172.7367431733
 10
326.298281415
 20
-176.6766524522
 10
327.4161957563
 20
-180.6425825006
 10
328.6892190552
 20
-184.6227365549
 10
330.1135646703
 20
-188.6052755417
 10
331.6849958478
 20
-192.5783532933
 10
333.3988383243
 20
-196.5301517852
 10
335.2499942299
 20
-200.4489162881
 10
337.2329572526
 20
-204.3229903335
 10
339.3418290163
 20
-208.1408503859
 10
341.5703366263
 20
-211.8911401194
 10
343.9118513278
 20
-215.5627041983
 10
346.3594082235
 20
-219.1446214581
 10
348.9057269906
 20
-222.6262373913
 10
351.5432335367
 20
-225.9971958392
 10
354.2640825288
 20
-229.2474697969
 10
357.0601807298
 20
-232.3673912386
 10
359.9232110716
 20
-235.3476798754
 10
362.8446573948
 20
-238.1794707601
 10
365.8158297801
 20
-240.8543406558
 10
368.8278903967
 20
-243.3643330913
 10
371.8718797907
 20
-245.7019820279
 10
374.9387435352
 20
-247.8603340669
 10
378.019359163
 20
-249.8329691331
 10
381.1045633013
 20
-251.6140195714
 10
384.1851789291
 20
-253.1981876003
 10
387.2520426736
 20
-254.58076107
 10
390.2960320676
 20
-255.7576274793
 10
393.3080926842
 20
-256.7252862078
 10
396.2792650695
 20
-257.4808589291
 10
399.2007113927
 20
-258.0220981722
 10
402.0637417345
 20
-258.3473940067
 10
404.8598399355
 20
-258.4557788315
 10
407.5806889277
 20
-258.346930253
 10
410.2181954738
 20
-258.0211720443
 10
412.7645142409
 20
-257.4794731817
 10
415.2120711365
 20
-256.7234449629
 10
417.553585838
 20
-255.7553362137
 10
419.782093448
 20
-254.5780265992
 10
421.8909652118
 20
-253.195018058
 10
423.8739282344
 20
-251.6104243856
 10
425.72508414
 20
-249.8289589976
 10
427.4389266165
 20
-247.85592091
 10
429.010357794
 20
-245.6971789767
 10
430.4347034091
 20
-243.3591544326
 10
431.707726708
 20
-240.8488017936
 10
432.8256410493
 20
-238.17358817
 10
433.1650947903
 20
-237.2412457476
  0
LINE
  5
136
330
1F
100
AcDbEntity
  8
0
  6
Continuous
 62
     7
370
    25
100
AcDbLine
 10
378.4778034699
 20
-110.5067073113
 30
0.0
 11
279.4828541038
 21
-167.6552751389
 31
0.0
  0
LINE
  5
137
330
1F
100
AcDbEntity
  8
0
  6
Continuous
 62
     7
370
    25
100
AcDbLine
 10
279.4828541038
 20
-167.6552751389
 30
0.0
 11
290.0894558216
 21
-173.7783359776
 31
0.0
  0
LINE
  5
138
330
1F
100
AcDbEntity
  8
0
  6
Continuous
 62
     7
370
    25
100
AcDbLine
 10
378.4778034699
 20
-104.7909216281
 30
0.0
 11
279.4828541038
 21
-161.9394894557
 31
0.0
  0
LINE
  5
139
330
1F
100
AcDbEntity
  8
0
  6
Continuous
 62
     7
370
    25
100
AcDbLine
 10
279.4828541038
 20
-161.9394894557
 30
0.0
 11
279.4828541038
 21
-167.6552751389
 31
0.0
  0
LINE
  5
13A
330
1F
100
AcDbEntity
  8
0
  6
Continuous
 62
     7
370
    25
100
AcDbLine
 10
378.4778034699
 20
-95.8089726974
 30
0.0
 11
279.4828541038
 21
-152.9575405249
 31
0.0
  0
LINE
  5
13B
330
1F
100
AcDbEntity
  8
0
  6
Continuous
 62
     7
370
    25
100
AcDbLine
 10
378.4778034699
 20
-101.5247583806
 30
0.0
 11
279.4828541038
 21
-158.6733262081
 31
0.0
  0
LINE
  5
13C
330
1F
100
AcDbEntity
  8
0
  6
Continuous
 62
     7
370
    25
100
AcDbLine
 10
279.4828541038
 20
-152.9575405249
 30
0.0
 11
279.4828541038
 21
-158.6733262081
 31
0.0
  0
LINE
  5
13D
330
1F
100
AcDbEntity
  8
0
  6
Continuous
 62
     7
370
    25
100
AcDbLine
 10
279.4828541038
 20
-158.6733262081
 30
0.0
 11
282.3117409648
 21
-160.3064078319
 31
0.0
  0
LINE
  5
13E
330
1F
100
AcDbEntity
  8
0
  6
Continuous
 62
     7
370
    25
100
AcDbLine
 10
323.4371004306
 20
-161.1897377763
 30
0.0
 11
318.4514056791
 21
-158.3115574601
 31
0.0
  0
ARC
  5
13F
330
1F
100
AcDbEntity
  8
0
  6
Continuous
 62
     7
370
    25
100
AcDbCircle
 10
439.5835149564
 20
-65.6613357178
 30
0.0
 40
3.392103226624617
100
AcDbArc
 50
113.1154790457
 51
175.5643799966
  0
LWPOLYLINE
  5
140
330
1F
100
AcDbEntity
  8
0
  6
Continuous
 62
     7
370
    25
100
AcDbPolyline
 90
       14
 70
   128
 43
0.0
 10
450.2015715389
 20
-65.3989942963
 10
450.1344445551
 20
-64.8407025339
 10
449.8386960721
 20
-64.1147947256
 10
449.3169282735
 20
-63.4326187935
 10
448.5869093358
 20
-62.8174054207
 10
447.6734991785
 20
-62.2901049608
 10
446.6078028889
 20
-61.8686739985
 10
445.426111476
 20
-61.5674638598
 10
444.1686660236
 20
-61.3967318947
 10
442.8782873284
 20
-61.3622921755
 10
441.5989176893
 20
-61.4653175055
 10
440.3741245048
 20
-61.7022994808
 10
439.245616638
 20
-62.0651679642
 10
438.2518240706
 20
-62.541565905
  0
LWPOLYLINE
  5
141
330
1F
100
AcDbEntity
  8
0
  6
Continuous
 62
     7
370
    25
100
AcDbPolyline
 90
       29
 70
   128
 43
0.0
 10
378.5013010604
 20
-33.7561468599
 10
380.4985232091
 20
-32.6983743555
 10
382.645866517
 20
-31.743632529
 10
384.9274328055
 20
-30.8989899549
 10
387.3263301561
 20
-30.1707000713
 10
389.8247979721
 20
-29.5641548816
 10
392.4043384719
 20
-29.0838450343
 10
395.0458536402
 20
-28.7333265753
 10
397.7297866228
 20
-28.5151946208
 10
400.436266519
 20
-28.4310641434
 10
403.1452554985
 20
-28.4815580157
 10
405.8366971547
 20
-28.6663023988
 10
408.4906649953
 20
-28.9839295099
 10
411.0875099708
 20
-29.432087749
 10
413.6080059497
 20
-30.0074591092
 10
416.0334920615
 20
-30.7057837424
 10
418.3460108558
 20
-31.5218914972
 10
420.5284412523
 20
-32.4497401974
 10
422.5646253002
 20
-33.4824603759
 10
424.4394878049
 20
-34.6124061337
 10
426.1391479405
 20
-35.8312117477
 10
427.6510220181
 20
-37.1298536078
 10
428.9639166509
 20
-38.4987170238
 10
430.0681116264
 20
-39.92766741
 10
430.9554318713
 20
-41.4061253176
 10
431.619307977
 20
-42.9231447616
 10
432.054824837
 20
-44.4674942607
 10
432.2587580369
 20
-46.0277399917
 10
432.2751646678
 20
-46.6145746211
  0
LWPOLYLINE
  5
142
330
1F
100
AcDbEntity
  8
0
  6
Continuous
 62
     7
370
    25
100
AcDbPolyline
 90
       11
 70
   128
 43
0.0
 10
369.2751646678
 20
-46.6145746211
 10
369.2769877674
 20
-46.4189328842
 10
369.4227218193
 20
-44.8565152971
 10
369.8005783888
 20
-43.3071137662
 10
370.4077599581
 20
-41.7821995182
 10
371.2397711672
 20
-40.2930624849
 10
372.2904520963
 20
-38.8507277157
 10
373.5520238713
 20
-37.4658737526
 10
375.0151462563
 20
-36.1487535699
 10
376.6689868049
 20
-34.9091186646
 10
378.5013010604
 20
-33.7561468599
  0
ENDSEC
  0
SECTION
  2
OBJECTS
  0
DICTIONARY
  5
C
330
0
100
AcDbDictionary
281
     1
  3
ACAD_GROUP
350
D
  3
ACAD_LAYOUT
350
1A
  3
ACAD_MLINESTYLE
350
17
  3
ACAD_PLOTSETTINGS
350
19
  3
ACAD_PLOTSTYLENAME
350
E
  3
ACAD_SCALELIST
350
47
  3
DWGPROPS
350
143
  0
DICTIONARY
  5
D
102
{ACAD_REACTORS
330
C
102
}
330
C
100
AcDbDictionary
281
     1
  0
DICTIONARY
  5
1A
102
{ACAD_REACTORS
330
C
102
}
330
C
100
AcDbDictionary
281
     1
  3
Layout1
350
1E
  3
Layout2
350
26
  3
Model
350
22
  0
DICTIONARY
  5
17
102
{ACAD_REACTORS
330
C
102
}
330
C
100
AcDbDictionary
281
     1
  3
Standard
350
18
  0
DICTIONARY
  5
19
102
{ACAD_REACTORS
330
C
102
}
330
C
100
AcDbDictionary
281
     1
  0
ACDBDICTIONARYWDFLT
  5
E
102
{ACAD_REACTORS
330
C
102
}
330
C
100
AcDbDictionary
281
     1
  3
Normal
350
F
100
AcDbDictionaryWithDefault
340
F
  0
DICTIONARY
  5
47
102
{ACAD_REACTORS
330
C
102
}
330
C
100
AcDbDictionary
281
     1
  3
A0
350
48
  3
A1
350
49
  3
A2
350
4A
  3
A3
350
4B
  3
A4
350
4C
  3
A5
350
4D
  3
A6
350
4E
  3
A7
350
4F
  3
A8
350
50
  3
A9
350
51
  3
B0
350
52
  3
B1
350
53
  3
B2
350
54
  3
B3
350
55
  3
B4
350
56
  3
B5
350
57
  3
B6
350
58
  3
B7
350
59
  3
B8
350
5A
  3
B9
350
5B
  3
C0
350
5C
  3
C1
350
5D
  3
C2
350
5E
  3
C3
350
5F
  3
C4
350
60
  3
C5
350
61
  3
C6
350
62
  3
C7
350
63
  3
C8
350
64
  3
C9
350
65
  3
D0
350
66
  3
D1
350
67
  3
D2
350
68
  0
XRECORD
  5
143
102
{ACAD_REACTORS
330
C
102
}
330
C
100
AcDbXrecord
280
     1
  1
DWGPROPS COOKIE
  2

  3

  4

  6

  7

  8
b.kav
  9

300
=
301
=
302
=
303
=
304
=
305
=
306
=
307
=
308
=
309
=
 40
0.0
 41
2459741.489519433
 42
2459741.489519687
  1

 90
        0
  0
LAYOUT
  5
1E
102
{ACAD_REACTORS
330
1A
102
}
330
1A
100
AcDbPlotSettings
  1

  2
none_device
  4

  6

 40
0.0
 41
0.0
 42
0.0
 43
0.0
 44
0.0
 45
0.0
 46
0.0
 47
0.0
 48
0.0
 49
0.0
140
0.0
141
0.0
142
1.0
143
1.0
 70
   688
 72
     1
 73
     0
 74
     5
  7

 75
    16
147
1.0
148
0.0
149
0.0
100
AcDbLayout
  1
Layout1
 70
     1
 71
     1
 10
0.0
 20
0.0
 11
420.0
 21
297.0
 12
0.0
 22
0.0
 32
0.0
 14
1.0000000000E+20
 24
1.0000000000E+20
 34
1.0000000000E+20
 15
-1.0000000000E+20
 25
-1.0000000000E+20
 35
-1.0000000000E+20
146
0.0
 13
0.0
 23
0.0
 33
0.0
 16
1.0
 26
0.0
 36
0.0
 17
0.0
 27
1.0
 37
0.0
 76
     0
330
1B
  0
LAYOUT
  5
26
102
{ACAD_REACTORS
330
1A
102
}
330
1A
100
AcDbPlotSettings
  1

  2
none_device
  4

  6

 40
0.0
 41
0.0
 42
0.0
 43
0.0
 44
0.0
 45
0.0
 46
0.0
 47
0.0
 48
0.0
 49
0.0
140
0.0
141
0.0
142
1.0
143
1.0
 70
   688
 72
     1
 73
     0
 74
     5
  7

 75
    16
147
1.0
148
0.0
149
0.0
100
AcDbLayout
  1
Layout2
 70
     1
 71
     2
 10
0.0
 20
0.0
 11
0.0
 21
0.0
 12
0.0
 22
0.0
 32
0.0
 14
0.0
 24
0.0
 34
0.0
 15
0.0
 25
0.0
 35
0.0
146
0.0
 13
0.0
 23
0.0
 33
0.0
 16
1.0
 26
0.0
 36
0.0
 17
0.0
 27
1.0
 37
0.0
 76
     0
330
23
  0
LAYOUT
  5
22
102
{ACAD_REACTORS
330
1A
102
}
330
1A
100
AcDbPlotSettings
  1

  2
none_device
  4
Letter_(8.50_x_11.00_Inches)
  6

 40
6.35
 41
6.35
 42
6.35000508
 43
6.35000508
 44
215.9
 45
279.4
 46
0.0
 47
0.0
 48
0.0
 49
0.0
140
0.0
141
0.0
142
1.0
143
1.0
 70
  1712
 72
     1
 73
     0
 74
     0
  7

 75
     0
147
1.0
148
0.0
149
0.0
100
AcDbLayout
  1
Model
 70
     1
 71
     0
 10
0.0
 20
0.0
 11
279.4
 21
215.9
 12
0.0
 22
0.0
 32
0.0
 14
0.0
 24
0.0
 34
0.0
 15
279.4
 25
215.9
 35
0.0
146
0.0
 13
0.0
 23
0.0
 33
0.0
 16
1.0
 26
0.0
 36
0.0
 17
0.0
 27
1.0
 37
0.0
 76
     0
330
1F
331
29
  0
MLINESTYLE
  5
18
102
{ACAD_REACTORS
330
17
102
}
330
17
100
AcDbMlineStyle
  2
Standard
 70
     0
  3

 62
   256
 51
90.0
 52
90.0
 71
     2
 49
0.5
 62
   256
  6
BYLAYER
 49
-0.5
 62
   256
  6
BYLAYER
  0
ACDBPLACEHOLDER
  5
F
102
{ACAD_REACTORS
330
E
102
}
330
E
  0
SCALE
  5
48
102
{ACAD_REACTORS
330
47
102
}
330
47
100
AcDbScale
 70
     0
300
1:1
140
1.0
141
1.0
290
     1
  0
SCALE
  5
49
102
{ACAD_REACTORS
330
47
102
}
330
47
100
AcDbScale
 70
     0
300
1:2
140
1.0
141
2.0
290
     0
  0
SCALE
  5
4A
102
{ACAD_REACTORS
330
47
102
}
330
47
100
AcDbScale
 70
     0
300
1:4
140
1.0
141
4.0
290
     0
  0
SCALE
  5
4B
102
{ACAD_REACTORS
330
47
102
}
330
47
100
AcDbScale
 70
     0
300
1:5
140
1.0
141
5.0
290
     0
  0
SCALE
  5
4C
102
{ACAD_REACTORS
330
47
102
}
330
47
100
AcDbScale
 70
     0
300
1:8
140
1.0
141
8.0
290
     0
  0
SCALE
  5
4D
102
{ACAD_REACTORS
330
47
102
}
330
47
100
AcDbScale
 70
     0
300
1:10
140
1.0
141
10.0
290
     0
  0
SCALE
  5
4E
102
{ACAD_REACTORS
330
47
102
}
330
47
100
AcDbScale
 70
     0
300
1:16
140
1.0
141
16.0
290
     0
  0
SCALE
  5
4F
102
{ACAD_REACTORS
330
47
102
}
330
47
100
AcDbScale
 70
     0
300
1:20
140
1.0
141
20.0
290
     0
  0
SCALE
  5
50
102
{ACAD_REACTORS
330
47
102
}
330
47
100
AcDbScale
 70
     0
300
1:30
140
1.0
141
30.0
290
     0
  0
SCALE
  5
51
102
{ACAD_REACTORS
330
47
102
}
330
47
100
AcDbScale
 70
     0
300
1:40
140
1.0
141
40.0
290
     0
  0
SCALE
  5
52
102
{ACAD_REACTORS
330
47
102
}
330
47
100
AcDbScale
 70
     0
300
1:50
140
1.0
141
50.0
290
     0
  0
SCALE
  5
53
102
{ACAD_REACTORS
330
47
102
}
330
47
100
AcDbScale
 70
     0
300
1:100
140
1.0
141
100.0
290
     0
  0
SCALE
  5
54
102
{ACAD_REACTORS
330
47
102
}
330
47
100
AcDbScale
 70
     0
300
2:1
140
2.0
141
1.0
290
     0
  0
SCALE
  5
55
102
{ACAD_REACTORS
330
47
102
}
330
47
100
AcDbScale
 70
     0
300
4:1
140
4.0
141
1.0
290
     0
  0
SCALE
  5
56
102
{ACAD_REACTORS
330
47
102
}
330
47
100
AcDbScale
 70
     0
300
8:1
140
8.0
141
1.0
290
     0
  0
SCALE
  5
57
102
{ACAD_REACTORS
330
47
102
}
330
47
100
AcDbScale
 70
     0
300
10:1
140
10.0
141
1.0
290
     0
  0
SCALE
  5
58
102
{ACAD_REACTORS
330
47
102
}
330
47
100
AcDbScale
 70
     0
300
100:1
140
100.0
141
1.0
290
     0
  0
SCALE
  5
59
102
{ACAD_REACTORS
330
47
102
}
330
47
100
AcDbScale
 70
     0
300
1/128" = 1'-0"
140
0.0078125
141
12.0
290
     0
  0
SCALE
  5
5A
102
{ACAD_REACTORS
330
47
102
}
330
47
100
AcDbScale
 70
     0
300
1/64" = 1'-0"
140
0.015625
141
12.0
290
     0
  0
SCALE
  5
5B
102
{ACAD_REACTORS
330
47
102
}
330
47
100
AcDbScale
 70
     0
300
1/32" = 1'-0"
140
0.03125
141
12.0
290
     0
  0
SCALE
  5
5C
102
{ACAD_REACTORS
330
47
102
}
330
47
100
AcDbScale
 70
     0
300
1/16" = 1'-0"
140
0.0625
141
12.0
290
     0
  0
SCALE
  5
5D
102
{ACAD_REACTORS
330
47
102
}
330
47
100
AcDbScale
 70
     0
300
3/32" = 1'-0"
140
0.09375
141
12.0
290
     0
  0
SCALE
  5
5E
102
{ACAD_REACTORS
330
47
102
}
330
47
100
AcDbScale
 70
     0
300
1/8" = 1'-0"
140
0.125
141
12.0
290
     0
  0
SCALE
  5
5F
102
{ACAD_REACTORS
330
47
102
}
330
47
100
AcDbScale
 70
     0
300
3/16" = 1'-0"
140
0.1875
141
12.0
290
     0
  0
SCALE
  5
60
102
{ACAD_REACTORS
330
47
102
}
330
47
100
AcDbScale
 70
     0
300
1/4" = 1'-0"
140
0.25
141
12.0
290
     0
  0
SCALE
  5
61
102
{ACAD_REACTORS
330
47
102
}
330
47
100
AcDbScale
 70
     0
300
3/8" = 1'-0"
140
0.375
141
12.0
290
     0
  0
SCALE
  5
62
102
{ACAD_REACTORS
330
47
102
}
330
47
100
AcDbScale
 70
     0
300
1/2" = 1'-0"
140
0.5
141
12.0
290
     0
  0
SCALE
  5
63
102
{ACAD_REACTORS
330
47
102
}
330
47
100
AcDbScale
 70
     0
300
3/4" = 1'-0"
140
0.75
141
12.0
290
     0
  0
SCALE
  5
64
102
{ACAD_REACTORS
330
47
102
}
330
47
100
AcDbScale
 70
     0
300
1" = 1'-0"
140
1.0
141
12.0
290
     0
  0
SCALE
  5
65
102
{ACAD_REACTORS
330
47
102
}
330
47
100
AcDbScale
 70
     0
300
1-1/2" = 1'-0"
140
1.5
141
12.0
290
     0
  0
SCALE
  5
66
102
{ACAD_REACTORS
330
47
102
}
330
47
100
AcDbScale
 70
     0
300
3" = 1'-0"
140
3.0
141
12.0
290
     0
  0
SCALE
  5
67
102
{ACAD_REACTORS
330
47
102
}
330
47
100
AcDbScale
 70
     0
300
6" = 1'-0"
140
6.0
141
12.0
290
     0
  0
SCALE
  5
68
102
{ACAD_REACTORS
330
47
102
}
330
47
100
AcDbScale
 70
     0
300
1'-0" = 1'-0"
140
12.0
141
12.0
290
     0
  0
ENDSEC
  0
EOF
